Oops, an error
Loading. Please wait.

Limb From Limb Bass Tab

ver1
ver1

Whole song

Interactive

More versions @911Tabs.com
3,421 views 1 this week
no commentswrite comment
1 2 3 4 5
excellent!
x 2
Autoscroll
+/-
esc
set tempo
stop
Hey! There's an official Ultimate Guitar app which is ideal
for learning songs when you're away from computer. Get the app
WARNING: You are trying to view
                                    content from Ultimate-Guitar.com
                                    in an unauthorized application,
                                    which is prohibited.

                                    Please use an official Ultimate
                                    Guitar Tabs application for iPhone,
                                    iPad or Android to access legitimate
                                    chords, guitar, bass, and drum tabs
                                    from Ultimate-Guitar.com database.

                                    Type "ultimate guitar tabs" in Apple
                                    App Store's or Android Market's
                                    search to find the application.
Arif Mirabdolbaghi

For everyone without Guitar Pro. Tabbed by Tom DeLonge II.

      S Q    S S S S S S S    S S S S S S S S S S S S  
F#||-----------------------|--------------------------|
C#||-----------------------|--------------------------|
G#||-----------------------|--------------------------|
D#||--0--------0-0---0---0-|--0-3-0-6-0-7-0-5-3-6-5-3-|
A#||-----------------------|--------------------------|


  S S S S S S S S S S S S    S S  S S S  S S S  S S  S  S  
--------------------------|--9-8--------------------------|
--------------------------|------10-9-7-------------------|
--------------------------|-------------10-9-7------------|
--0-3-0-6-0-3-0-0---0---0-|--------------------11-8-------|
--------------------------|-------------------------12-10-|


  S S S S S S S S S S S S    S S S S S S S S S S S S  
--------------------------|--------------------------|
--------------------------|--------------------------|
--------------------------|--------------3-5-7-5-7-9-|
--0-3-0-6-0-3-0-0---0---0-|--3-5-7-5-7-8-------------|
--------------------------|--------------------------|


  S S S S S S S S S S S S    S H        E  S    S S S S S S S S S S S S  
--------------------------|------------------|--------------------------|
--------------------------|------------------|--------------------------|
--------------------------|------------------|--------------------------|
--0-3-0-6-0-3-0-0---0---0-|--5---------------|--0-3-0-6-0-3-0-0---0---0-|
--------------------------|------------------|--------------------------|


  S S S S S S S S S S S S    S S S S S S S S S S S S  
--------------------------|--------------------------|
--------------------------|--------------------------|
--------------------------|--------------------------|
--0-3-0-6-0-7-0-5-3-6-5-3-|--0-3-0-6-0-3-0-0---0---0-|
--------------------------|--------------------------|


  S S  S S S  S S S  S S  S  S    S S S S S S S S S S S S  
--9-8--------------------------|--------------------------|
------10-9-7-------------------|--------------------------|
-------------10-9-7------------|--------------------------|
--------------------11-8-------|--0-3-0-6-0-3-0-0---0---0-|
-------------------------12-10-|--------------------------|


  S S S S S S S S S S S S    S S S S S S S S S S S S  
--------------------------|--------------------------|
--------------------------|--------------------------|
--------------3-5-7-5-7-9-|--------------------------|
--3-5-7-5-7-8-------------|--0-3-0-6-0-3-0-0---0---0-|
--------------------------|--------------------------|


                              T     T           T     T      T  
  S S S S S S S S S S S S     S  S  S  S E  S   S S   S  S   S  
--------------------------|------------------------------------|
--------------------------|------------------------------------|
--------------------------|--10p-7----------------------10h-13-|
--5-5-5-5-5-5-5-5-5-5-5-5-|-----------------------9h-12--------|
--------------------------|--------11p-5----8h-11--------------|


   T     T        T    T           T     T           T     T      T  
   S  S  S  S E   S  S S  S E      S  S  S  S E  S   S S   S  S   S  
-------------------------------|------------------------------------|
-------------------------------|------------------------------------|
--10p-7------------------------|--10p-7----------------------10h-13-|
-----------------12p-9---------|-----------------------9h-12--------|
--------11p-5----------8p-2----|--------11p-5----8h-11--------------|


   T     T        T    T           T     T      T     
   S  S  S  S E   S  S S  S E      S  S  S  S   S S   
-------------------------------|---------------------|
-------------------------------|---------------------|
--10p-7------------------------|--10p-7-----------7h-|
-----------------12p-9---------|---------------------|
--------11p-5----------8p-2----|--------11p-5h-11----|


   T     T           T     T      T  
   S  S  S  S E  S   S S   S  S   S  
------------------------------------|
------------------------------------|
--10p-7----------------------10h-13-|
-----------------------9h-12--------|
--------11p-5----8h-11--------------|


   T     T        T    T        T     T     
   S  S  S  S E   S  S S  S E   S  S  S  S  
-------------------------------------------|
-------------------------------------------|
--10p-7------------------------10p-7-------|
-----------------12p-9---------------------|
--------11p-5----------8p-2----------11p-5-|


   T     T           T     T      T     T     T        T    T        
   S  S  S  S E  S   S S   S  S   S     S  S  S  S E   S  S S  S E   
------------------------------------|-------------------------------|
------------------------------------|-------------------------------|
--10p-7----------------------10h-13-|--10p-7------------------------|
-----------------------9h-12--------|-----------------12p-9---------|
--------11p-5----8h-11--------------|--------11p-5----------8p-2----|


  E  S E  E.  S E  S    E  S S S S S S S S S S    E  S E  E.  S E  S  
---------------------|-------------------------|---------------------|
---------------------|-------------------------|---------------------|
---------------------|-------------------------|---------------------|
---------------------|-------------------------|---------------------|
--5--5-6--5---5-8--5-|--L--5-5-5-5-5-5-5-5-5-5-|--5--5-6--5---5-8--5-|


  E  S E  Q    E.     E  S E  E.  S E  S    E  S S S S S S S S S S  
-------------------|---------------------|-------------------------|
-------------------|---------------------|-------------------------|
-------------------|---------------------|-------------------------|
-------------------|---------------------|-------------------------|
--L--5-6--2----L---|--5--5-6--5---5-8--5-|--L--5-5-5-5-5-5-5-5-5-5-|


  E  S E  E.  S E  S    E  S E  E.  S E  S    H.              H.            
---------------------|---------------------|---------------|---------------|
---------------------|---------------------|---------------|---------------|
---------------------|---------------------|---------------|---------------|
-------------------5-|--L--5---------------|---------------|---------------|
--5--5-6--5---5-8----|-------5--4---4-2--1-|--L------------|--L------------|


  S S S S S S S S S S S S    S S S S S S S S S S S S  
--------------------------|--------------------------|
--------------------------|--------------------------|
--------------------------|--------------------------|
--0-3-0-6-0-3-0-0---0---0-|--0-3-0-6-0-7-0-5-3-6-5-3-|
--------------------------|--------------------------|


  S S S S S S S S S S S S    S S  S S S  S S S  S S  S  S  
--------------------------|--9-8--------------------------|
--------------------------|------10-9-7-------------------|
--------------------------|-------------10-9-7------------|
--0-3-0-6-0-3-0-0---0---0-|--------------------11-8-------|
--------------------------|-------------------------12-10-|


  S S S S S S S S S S S S    S S S S S S S S S S S S  
--------------------------|--------------------------|
--------------------------|--------------------------|
--------------------------|--------------3-5-7-5-7-9-|
--0-3-0-6-0-3-0-0---0---0-|--3-5-7-5-7-8-------------|
--------------------------|--------------------------|


  S S S S S S S S S S S S    S S S S S S S S S S S S  
--------------------------|--------------------------|
--------------------------|--------------------------|
--------------------------|--------------------------|
--0-3-0-6-0-3-0-0---0---0-|--5-5-5-5-5-5-5-5-5-5-5-5-|
--------------------------|--------------------------|


  S S S S S S S S S S S S    S S S S S S S S S S S S  
--------------------------|--------------------------|
--------------------------|--------------------------|
--------------------------|--------------------------|
--8-8-8-8-8-8-8-8-8-8-8-8-|--5-5-5-5-5-5-5-5-5-5-5-5-|
--------------------------|--------------------------|


  S S S S S S S S S S S S    E  S S S S E  S S S S    E  E  E  E  E  E   
--------------------------|------------------------|--------------------|
--------------------------|------------------------|--------------------|
--------------------------|--5--5-5-5-5-5--5-5-5-5-|--5-----6-----3-----|
--8-8-8-8-8-8-8-8-8-8-8-8-|------------------------|--------------------|
--------------------------|------------------------|--------------------|


  E  S S S S E  S S S S    E  S S S S E  S S S S    E  S S S S E  S S S S  
------------------------|------------------------|------------------------|
------------------------|------------------------|------------------------|
--5--5-5-5-5-5--5-5-5-5-|-------------4--4-4-4-4-|--5--5-5-5-5-5--5-5-5-5-|
------------------------|--3--3-3-3-3------------|------------------------|
------------------------|------------------------|------------------------|


  E  E  E  E  E  E     E  S S S S E  S S S S    E  S S S S E  S S S S  
--------------------|------------------------|------------------------|
--------------------|------------------------|------------------------|
--5-----6-----3-----|--5--5-5-5-5-5--5-5-5-5-|-------------4--4-4-4-4-|
--------------------|------------------------|--3--3-3-3-3------------|
--------------------|------------------------|------------------------|


  E  S S S S E  S S S S    E  S S S S E  S S S S    E  S S S S E  S S S S  
------------------------|------------------------|------------------------|
------------------------|------------------------|------------------------|
--5--5-5-5-5-6--6-6-6-6-|--3--3-3-3-3-5--5-5-5-5-|--1--1-1-1-1-3--3-3-3-3-|
------------------------|------------------------|------------------------|
------------------------|------------------------|------------------------|


  S S S S S S S S S S S S    E  S S S S E  S S S S    E  S S S S E  S S S S  
--------------------------|------------------------|------------------------|
--------------------------|------------------------|------------------------|
--------------------------|--3--3-3-3-3------------|------------------------|
--5-5-5-5-5-5-5-5-5-5-5-5-|-------------3--3-3-3-3-|--5--5-5-5-5-1--1-1-1-1-|
--------------------------|------------------------|------------------------|


  E  S S S S E  S S S S    E  S S S S E  S S S S S S  
------------------------|----------------------------|
------------------------|----------------------------|
--3--3-3-3-3------------|----------------------------|
-------------0--0-0-0-0-|--1--1-1-1-1-3--3-3-3-3-3-3-|
------------------------|----------------------------|


  S S S S S S S S S S S S S S S S    S S S S S S S S S S S S S S S S  
----------------------------------|----------------------------------|
----------------------------------|--------------------------5-------|
----------------------------------|--------5-----------5-6-7---7-6-5-|
--0-0-0-0---0-0-0-0-0-0---0-0-0-0-|--5-6-7---7-6-5-6-7---------------|
----------------------------------|----------------------------------|


  S S S S S S S S S S S S S S S S    S S S S S S S S S S S S S S S S  
----------------------------------|----------------------------------|
----------------------------------|----------------------------------|
----------------------------------|----------------------------------|
--0-0-0-0---0-0-0-0-0-0---0-0-0-0-|--0-0-0-0-0-0-0-0-0-0-0-0-0-0-0-0-|
----------------------------------|----------------------------------|


  S S S S S S S S S S S S S S S S    S S S S S S S S S S S S S S S S  
----------------------------------|----------------------------------|
----------------------------------|--------------------------5-------|
----------------------------------|--------5-----------5-6-7---7-6-5-|
--0---0---0-0-0-0---0-0---0-0-0-0-|--5-6-7---7-6-5-6-7---------------|
----------------------------------|----------------------------------|


  S S S S S S S S S S S S S S S S    S S S S S S S S S S S S S S S S  
----------------------------------|----------------------------------|
----------------------------------|----------------------------------|
----------------------------------|----------------------------------|
--0-0-0-0---0-0-0-0-0-0-0-0-0-0-0-|--0-0-0-0-0-0-0-0-0-0-0-0-0-0-0-0-|
----------------------------------|----------------------------------|


              |--3--|  |--3--|                 |--3--|               
  E  E  E  E  E  E  E  E  E  E     E  E  E  E  E  E  E     E  E  E   
--------------------------------|-----------------------|-----------|
--------------------------------|-----------------------|-----------|
--------------------------------|--------------2--------|-----------|
--0--7--6--5--0--7--6--5--0--7--|--0--7--6--5-----2--1--|--0--7--6--|
--------------------------------|-----------------------|-----------|


              |--3--|  |--3--|                 |--3--|               
  E  E  E  E  E  E  E  E  E  E     E  E  E  E  E  E  E     E  E  E   
--------------------------------|-----------------------|-----------|
--------------------------------|-----------------------|-----------|
--------------------------7--6--|--------------2--------|-----------|
--0--7--6--5--0--7--6--5--------|--0--7--6--5-----2--1--|--0--7--6--|
--------------------------------|-----------------------|-----------|


              |--3--|  |--3--|                                    
  E  E  E  E  E  E  E  E  E  E     S S S S S S S S S E  S S E  S  
--------------------------------|--------------------------------|
--------------------------------|--------------------------------|
--------------------------7--6--|--------------------------------|
--0--7--6--5--0--7--6--5--------|--0-0-0-0-0-0-0-0-0------0------|
--------------------------------|--------------------------------|


                                                              |--3--|   
  Q    Q    Q    Q       Q    Q    E  E  E  E     E  E  E  E  E  E  E   
----------------------|------------------------|-----------------------|
----------------------|------------------------|-----------------------|
----------------------|------------------------|--------------2--------|
--0----7----6----5----|--0----7----6--5--7--6--|--0--7--6--5-----2--1--|
----------------------|------------------------|-----------------------|


                          |--3--|  |--3--|                                    
  E  E  E     E  E  E  E  E  E  E  E  E  E     S S S S S S S S S E  S S E  S  
-----------|--------------------------------|--------------------------------|
-----------|--------------------------------|--------------------------------|
-----------|--------------------------7--6--|--------------------------------|
--0--7--6--|--0--7--6--5--0--7--6--5--------|--0-0-0-0-0-0-0-0-0------0------|
-----------|--------------------------------|--------------------------------|


  S S S S S S S S S E  S S E  S    S S S S S S S S S E  S S E  S  
--------------------------------|--------------------------------|
--------------------------------|--------------------------------|
--------------------------------|--------------------------------|
--3-3-3-3-3-3-3-3-3------3------|--8-8-8-8-8-8-8-8-8------8------|
--------------------------------|--------------------------------|


  S S S S S S E  S S S S S S E     S S S S S S S S S E  S S E  S  
--------------------------------|--------------------------------|
--------------------------------|--------------------------------|
--------------------------------|--------------------------------|
--6-6-6-6-6-6----1-1-1-1-1-1----|--3-3-3-3-3-3-3-3-3------3------|
--------------------------------|--------------------------------|


  S S S S S S S S S E  S S E  S    S S S S S S S S S E  S S E  S  
--------------------------------|--------------------------------|
--------------------------------|--------------------------------|
--------------------------------|--------------------------------|
--3-3-3-3-3-3-3-3-3------3------|--8-8-8-8-8-8-8-8-8------8------|
--------------------------------|--------------------------------|


  S S S S S S E  S S S S S S E     S S S S S S S S S E  S S E  S  
--------------------------------|--------------------------------|
--------------------------------|--------------------------------|
--------------------------------|--------------------------------|
--6-6-6-6-6-6----1-1-1-1-1-1----|--3-3-3-3-3-3-3-3-3------3------|
--------------------------------|--------------------------------|


  E  E  E  E   E   E   E      E   E   E   E   E   E   E   
--------------------------|------------------------------|
--------------14--12------|--12--14--15--14--12----------|
----------------------15--|----------------------15--14--|
--------8-----------------|------------------------------|
--6--8-----6--------------|------------------------------|


   E   E   E   E   E   E   E   E      E   E   E   E   E   E   E   E   
----------------------------------|----------------------------------|
--15--14--12------14--12----------|--------------14--15--14----------|
--------------15----------15--14--|--15------17--------------17--15--|
----------------------------------|------15--------------------------|
----------------------------------|----------------------------------|


  E  E  E  E   E   E   E      E   E   E   E   E   E   E   
--------------------------|------------------------------|
--------------14--12------|--12--14--15--14--17--15--14--|
----------------------15--|------------------------------|
--------8-----------------|------------------------------|
--6--8-----6--------------|------------------------------|


   E   E   E   E   E   E   E   E      E   E   E   E   E   E   E   E   
----------------------------------|----------------------------------|
----------15--14--12------14--12--|----------12--14--15--14--17--15--|
--17--15--------------15----------|--15--14--------------------------|
----------------------------------|----------------------------------|
----------------------------------|----------------------------------|


  E  S S S S E  S S S S    E.  E.  E.  E.     E  S S S S E  S S S S  
------------------------|------------------|------------------------|
------------------------|------------------|------------------------|
--5--5-5-5-5-5--5-5-5-5-|------------------|--5--5-5-5-5-5--5-5-5-5-|
------------------------|------------------|------------------------|
------------------------|--3---4---1---3---|------------------------|


  E  S S S S E  S S S S    E  S S S S E  S S S S    E  E  E  E  E  E   
------------------------|------------------------|--------------------|
------------------------|------------------------|--------------------|
-------------4--4-4-4-4-|--5--5-5-5-5-5--5-5-5-5-|--------------------|
--3--3-3-3-3------------|------------------------|--------------------|
------------------------|------------------------|--3-----4-----1-----|


  H        H           H        H           H        H         
--------------------|--------------------|--------------------|
--------------------|--------------------|--------------------|
--------------------|--------------------|--------------------|
-----------3--------|--0--------5--------|--7--------8--------|
--3-----------------|--------------------|--------------------|


  H        Q.     S S    S S S S S  S  S S S S S S S  S  S S  
----------------------|--------------------------------------|
----------------------|--------------------------------------|
-----------5----------|--------------------------------------|
--3-----------------0-|----0-3---2h-3p-2-0---0-3---2h-3p-2---|
----------------------|------------------------------------3-|


  S S S S S  S  S S S S S S S S S S    S S S S S  S  S S S S S S S  S  S S  
------------------------------------|--------------------------------------|
------------------------------------|--------------------------------------|
------------------------------------|--------------------------------------|
----0-3---2h-3p-2-----0-5-0-5-6-7-0-|----0-3---2h-3p-2-0---0-3---2h-3p-2---|
------------------2-----------------|------------------------------------3-|


  S S S S S  S  S S Q    E  S S    S S S S S  S  S S S S S S S  S  S S  
--------------------------------|--------------------------------------|
--------------------------------|--------------------------------------|
--------------------------------|--------------------------------------|
----0-3---2h-3p-2-------------0-|----0-3---2h-3p-2-0---0-3---2h-3p-2---|
------------------2-------------|------------------------------------3-|


  S S S S S  S  S S S S S S S S S S    S S S S S  S  S S S S S S S  S  S S  
------------------------------------|--------------------------------------|
------------------------------------|--------------------------------------|
------------------------------------|--------------------------------------|
----0-3---2h-3p-2-----0-5-0-5-6-7-0-|----0-3---2h-3p-2-0---0-3---2h-3p-2---|
------------------2-----------------|------------------------------------3-|


  S S S S S  S  S S S S S S S S S S    T  T E  E  S T  T E  E  S S S S S  
------------------------------------|------------------------------------|
------------------------------------|------------------------------------|
------------------------------------|--2s-4---------2s-4---------3-3-3-3-|
----0-3---2h-3p-2-----0-5-0-5-6-7-0-|-------2--2--2------2--2--2---------|
------------------2-----------------|------------------------------------|


  T  T E  E  S T  T E  E  S S S S S    T  T E  E  S T  T E  E  S S S S S  
------------------------------------|------------------------------------|
------------------------------------|------------------------------------|
--2s-4---------2s-4-----------------|--2s-4---------2s-4---------3-3-3-3-|
-------2--2--2------2--2--2-0-0-0-0-|-------2--2--2------2--2--2---------|
------------------------------------|------------------------------------|


  S S S S S S S S S S S S S S S S    T  T E  E  S T  T E  E  S S S S S  
----------------------------------|------------------------------------|
----------------------------------|------------------------------------|
----------------------------------|--2s-4---------2s-4---------3-3-3-3-|
--0-0---0-0---0-0---0-0---0-0---0-|-------2--2--2------2--2--2---------|
----------------------------------|------------------------------------|


  T  T E  E  S T  T E  E  S S S S S    T  T E  E  S T  T E  E  S S S S S  
------------------------------------|------------------------------------|
------------------------------------|------------------------------------|
--2s-4---------2s-4-----------------|--2s-4---------2s-4---------3-3-3-3-|
-------2--2--2------2--2--2-0-0-0-0-|-------2--2--2------2--2--2---------|
------------------------------------|------------------------------------|


  S S S S S S Q    S S S S S S    S S S S S S Q    S S S S S S  
-------------------------------|-------------------------------|
-------------------------------|-------------------------------|
-------------------------------|-------------------------------|
--0-0---0-0-0------0-0-0---0---|--0-0---0-0-0------0-0-0---0---|
-------------------------------|-------------------------------|


  S S S S S S Q    S S S S S S    S S S S S S Q    S S S S S S  
-------------------------------|-------------------------------|
-------------------------------|-------------------------------|
-------------------------------|-------------------------------|
--0-0---0-0-0------0-0-0---0---|--0-0---0-0-0------0-0-0---0---|
-------------------------------|-------------------------------|


  S S S S S S Q    S S S S S S    S S S S S S S S S S S S  
-------------------------------|--------------------------|
-------------------------------|--------------------------|
-------------------------------|--------------------------|
--0-0---0-0-0------0-0-0---0---|--0-0-0-0-0-0-0-3-0-5-0-6-|
-------------------------------|--------------------------|


  S S S S S S S S S S S S    S S S S S S S S S S S S    S S S S S S E  S E.   
--------------------------|--------------------------|-----------------------|
--------------------------|--------------------------|-----------------------|
--------------------------|--------------------------|-----------------------|
--0-0-0-0-0-0-0-0-0-0-0-0-|--0-0-0-0-0-0-0-3-0-5-0-6-|--0-0-0-0-0-0----------|
--------------------------|--------------------------|--------------2--2-2---|


  S S S S S S S S S S S S    S S S S S S S S S S S S  
--------------------------|--------------------------|
--------------------------|--------------------------|
--------------------------|--------------------------|
--0-0-0-0-0-0-0-3-0-5-0-6-|--0-0-0-0-0-0-0-0-0-0-0-0-|
--------------------------|--------------------------|


  S S S S S S S S S S S S    S S S S S S E  S E.     E  S E  E.  S E  S  
--------------------------|-----------------------|---------------------|
--------------------------|-----------------------|---------------------|
--------------------------|-----------------------|---------------------|
--0-0-0-0-0-0-0-3-0-5-0-6-|--0-0-0-0-0-0----------|---------------------|
--------------------------|--------------2--2-2---|--5--5-6--5---5-8--5-|


  E  S S S S S S S S S S    E  S E  E.  S E  S    E  S E  E.  S E.   
-------------------------|---------------------|--------------------|
-------------------------|---------------------|--------------------|
-------------------------|---------------------|--------------------|
-------------------------|---------------------|--------------------|
--L--5-5-5-5-5-5-5-5-5-5-|--5--5-6--5---5-8--5-|--L--5-6--2---2-2---|


  E  S E  E.  S E  S    E  S S S S S S S S S S    E  S E  E.  S E  S  
---------------------|-------------------------|---------------------|
---------------------|-------------------------|---------------------|
---------------------|-------------------------|---------------------|
---------------------|-------------------------|-------------------5-|
--5--5-6--5---5-8--5-|--L--5-5-5-5-5-5-5-5-5-5-|--5--5-6--5---5-8----|


  E  S E  E.  S E.     E  S E  E.  S E  S    E  S S S S S S S S S S  
--------------------|---------------------|-------------------------|
--------------------|---------------------|-------------------------|
--------------------|---------------------|-------------------------|
--L--5--------------|---------------------|-------------------------|
-------5--4---4-1---|--5--5-6--5---5-8--5-|--L--5-5-5-5-5-5-5-5-5-5-|


  E  S E  E.  S E  S    E  S E  E.  S  S   S  S    E  S E  E.  S E  S  
---------------------|--------------------------|---------------------|
---------------------|--------------------------|---------------------|
---------------------|--------------------------|---------------------|
---------------------|--------------------------|---------------------|
--5--5-6--5---5-8--5-|--L--5-6--2---2s-5s-10s-5-|--5--5-6--5---5-8--5-|


  E  S S S S S S S S S S    E  S E  E.  S E  S    E  S E  E.  S E  S    Q.      
-------------------------|---------------------|---------------------|---------|
-------------------------|---------------------|---------------------|---------|
-------------------------|---------------------|---------------------|---------|
-------------------------|-------------------5-|--L--5---------------|---------|
--L--5-5-5-5-5-5-5-5-5-5-|--5--5-6--5---5-8----|-------5--4---4-2--1-|--L------|


  W                  
-------------------||
-------------------||
-------------------||
--0----------------||
-------------------||




Duration Legend
---------------
W - whole
H - half
Q - quarter
E - 8th
S - 16th
T - 32nd
X - 64th
. - note dotted
|-n-|  - n-tuplets


Tablature Legend
----------------
L - tied note
x - dead note
g - grace note
(n) - ghost note
> - accentuded note
NH - natural harmonic
AH - artificial harmonic
TH - tapped harmonic
SH - semi harmonic
PH - pitch harmonic
h - hammer on
p - pull off
b - bend
br - bendRelease
pb - preBend
pbr - preBendRelease
brb - bendReleaseBend
\n/ - tremolo bar dip
\n - tremolo bar dive
-/n - tremolo bar Release up
/n\ - tremolo bar inverted dip
/n - tremolo bar return
-\n - tremolo bar Release down
S - shift slide
s - legato slide
/ -  slide into from below or out of upwards
\ -  slide into from above or out of downwards
~ - vibrato
W - wide vibrato
tr - trill
TP - tremolo picking
T - tapping
S - slap
P - pop
< - fade in
^ - brush up
v - brush down
comments
We did not receive enough feedback on this tab! Please rate:
print report bad tab
1 2 3 4 5
I want to post or [tab]
guest
You may want to rate the tab now too:
select rating
Please do not post tabs as comments. Select "correction" instead!