Oops, an error
Loading. Please wait.

Limb From Limb Tab

ver1
ver1

Whole song

Interactive

More versions @911Tabs.com
16,915 views 12 this week
7 commentsread comments
1 2 3 4 5
excellent!
x 7
Autoscroll
+/-
esc
set tempo
stop
Contributor
Difficulty
advanced
Hey! There's an official Ultimate Guitar app which is ideal
for learning songs when you're away from computer. Get the app
WARNING: You are trying to view
                                    content from Ultimate-Guitar.com
                                    in an unauthorized application,
                                    which is prohibited.

                                    Please use an official Ultimate
                                    Guitar Tabs application for iPhone,
                                    iPad or Android to access legitimate
                                    chords, guitar, bass, and drum tabs
                                    from Ultimate-Guitar.com database.

                                    Type "ultimate guitar tabs" in Apple
                                    App Store's or Android Market's
                                    search to find the application.
Protest the Hero
                   
Limb From Limb
                                  


                                                                Protest the Hero
Luke Hoskin



      S  S S S S  S S S S S S S    S  S S S S S S S S S S S  
D#||----------------------------|---------------------------|
A#||----------------------------|---------------------------|
F#||----------------------------|---------------------------|
C#||---------8------------------|---------8---9---7-5-8-7-5-|
G#||--7-10-7---7-10-2-2---2---2-|--7-10-7---7---------------|
D#||----------------0-0---0---0-|---------------5-----------|


  S  S S S S S S S S S S S     S  S S  S  S S  S S S  S S S  
---------------------------|--12-10-8-----------------------|
---------------------------|----------12-10-8---------------|
---------------------------|------------------11-9-7--------|
---------8---5-------------|-------------------------10-9-7-|
--7-10-7---7---2-2---2---2-|--------------------------------|
---------------0-0---0---0-|--------------------------------|


  S  S S S S S S S S S S S    S S S S S S S S S S S S  
---------------------------|--------------------------|
---------------------------|--------------------------|
---------------------------|--------------------------|
---------8---5-------------|--------------------------|
--7-10-7---7---2-2---2---2-|----2-3-2-3-5-3-5-7-5-7-9-|
---------------0-0---0---0-|--5-----------------------|


  S  S S S S S S S S S S S    S S S  S S S S S S S S S  
---------------------------|---------------------------|
---------------------------|--------10-------8---------|
---------------------------|----6-9------6-9---9-6-----|
---------8---5-------------|--7--------7-----------7-4-|
--7-10-7---7---2-2---2---2-|---------------------------|
---------------0-0---0---0-|---------------------------|


  S  S S S S S S S S S S S    S  S S S S S S S S S S S  
---------------------------|---------------------------|
---------------------------|---------------------------|
---------------------------|---------------------------|
---------8---5-------------|---------8---9---7-5-8-7-5-|
--7-10-7---7---2-2---2---2-|--7-10-7---7---------------|
---------------0-0---0---0-|---------------5-----------|


  S  S S S S S S S S S S S     S  S S  S  S S  S S S  S S S  
---------------------------|--12-10-8-----------------------|
---------------------------|----------12-10-8---------------|
---------------------------|------------------11-9-7--------|
---------8---5-------------|-------------------------10-9-7-|
--7-10-7---7---2-2---2---2-|--------------------------------|
---------------0-0---0---0-|--------------------------------|


  S  S S S S S S S S S S S    S S S S S S S S S S S S  
---------------------------|--------------------------|
---------------------------|--------------------------|
---------------------------|--------------------------|
---------8---5-------------|--------------------------|
--7-10-7---7---2-2---2---2-|----2-3-2-3-5-3-5-7-5-7-9-|
---------------0-0---0---0-|--5-----------------------|


  S  S S S S S S S S S S S    S S S  S S S S S S S S S  
---------------------------|---------------------------|
---------------------------|--------10-------8---------|
---------------------------|----6-9------6-9---9-6-----|
---------8---5-------------|--7--------7-----------7-4-|
--7-10-7---7---2-2---2---2-|---------------------------|
---------------0-0---0---0-|---------------------------|


   S  S  S  S E   S  S  S  S  S  S     S  S  S  S E  S  S  S S E   
-----------------------------------|------------------------------|
--------------------------------11-|------------------------------|
--12-------------------------12----|--12-------------9------------|
-----14----------------11-14-------|-----14------------11---------|
--------13-10----10-13-------------|--------13-10---------10-7----|
-----------------------------------|------------------------------|


   S  S  S  S E   S  S  S  S  S  S     S  S  S  S E  S  S  S S E   
-----------------------------------|------------------------------|
--------------------------------11-|------------------------------|
--12-------------------------12----|--12-------------9------------|
-----14----------------11-14-------|-----14------------11---------|
--------13-10----10-13-------------|--------13-10---------10-7----|
-----------------------------------|------------------------------|


   S  S  S  S  S  S  S  S  S  S E   S  S  S  S  S  S  
-----------------------------------------------------|
--------------------------------------------------11-|
--12----------------12-------------------------12----|
-----14----------14----14----------------11-14-------|
--------13-10-13----------13-10----10-13-------------|
-----------------------------------------------------|


   S  S  S  S E  S  S  S S E      S  S  S  S  S  S  S E   S  S  S  S  S  S  
------------------------------|--------------------------------------------|
------------------------------|-----------------------------------------11-|
--12-------------9------------|--12-------12-------------------------12----|
-----14------------11---------|-----14-------14----------------11-14-------|
--------13-10---------10-7----|--------13-------13-10----10-13-------------|
------------------------------|--------------------------------------------|


   S  S  S  S E  S  S  S S E     E  S  E  E  S S  E  Q     
------------------------------|---------------------------|
------------------------------|---------------------------|
--12-------------9------------|-------10--9--L-x-12--9----|
-----14------------11---------|-----x--x--x----x--x--x----|
--------13-10---------10-7----|--2--x--8--7--L-x-10--7----|
------------------------------|--0------------------------|


  S S T T S S S S S S S    E  S  E  E  S S  E  E  S S     E  Q    E  S  
------------------------|-----------------------------|----------------|
------------------------|-----------------------------|----------------|
------------------------|-------10--9--L-x-12--9--L-x-|--10--7----L----|
------------------------|-----x--x--x----x--x--x----x-|---x--x----L----|
--2-2-2-2-2-2-2-2-2-2-2-|--2--x--8--7--L-x-10--7--L-x-|---8--5----L----|
--0-0-0-0-0-0-0-0-0-0-0-|--0--------------------------|----------------|


  E  S  E  E  S S  E  Q       S S T T S S S S S S S  
---------------------------|------------------------|
---------------------------|------------------------|
-----x-10--9--L-x-12--9----|------------------------|
-----x--x--x----x--x--x----|------------------------|
--2--x--8--7--L-x-10--7----|--2-2-2-2-2-2-2-2-2-2-2-|
--0------------------------|--0-0-0-0-0-0-0-0-0-0-0-|


  E  S  E  E  S S  E   E  S S    E   E  S S E   H           W                 
------------------------------|--------------------------|-------------------|
------------------------------|--------------------------|-------------------|
-------10--9--L-x-12--14--L-x-|--9s--8--L-x-6s--5--------|--L----------------|
-----x--x--x----x--x---x----x-|--xs--x--L-x-xs--x--------|--L----------------|
--2--x--8--7--L-x-10--12--L-x-|--7---6--L-x-4s--3--------|--L----------------|
--0---------------------------|--------------------------|-------------------|


  S  S S S S S S S S S S S    S  S S S S S S S S S S S  
---------------------------|---------------------------|
---------------------------|---------------------------|
---------------------------|---------------------------|
---------8---5-------------|---------8---9---7-5-8-7-5-|
--7-10-7---7---2-2---2---2-|--7-10-7---7---------------|
---------------0-0---0---0-|---------------5-----------|


  S  S S S S S S S S S S S     S  S S  S  S S  S  S  S  S  S  S  
---------------------------|--12-10-8---------17-15-14----------|
---------------------------|----------12-10-8----------17-15-13-|
---------------------------|------------------------------------|
---------8---5-------------|------------------------------------|
--7-10-7---7---2-2---2---2-|------------------------------------|
---------------0-0---0---0-|------------------------------------|


  S  S S S S S S S S S S S    S S S S S S S S S S S S  
---------------------------|--------------------------|
---------------------------|--------------------------|
---------------------------|------------------------4-|
---------8---5-------------|----------------5-7-5-7---|
--7-10-7---7---2-2---2---2-|----3-5-3-5-7-9-----------|
---------------0-0---0---0-|--5-----------------------|


  S  S S S S S S S S S S S    S S S  S S S S S S S S S  
---------------------------|---------------------------|
---------------------------|--------10-------8---------|
---------------------------|----6-9------6-9---9-7-6---|
---------8---5-------------|--7--------7-------------7-|
--7-10-7---7---2-2---2---2-|---------------------------|
---------------0-0---0---0-|---------------------------|


   S S  S  S  S S  S  S  S  S S  S    S S S  S S S S S S S S S  
-----------------------------------|---------------------------|
----------13---------11------------|--------10-------8---------|
-----9-12-------9-12----12-10-9----|----6-9------6-9---9-7-6---|
--10---------10-----------------10-|--7--------7-------------7-|
-----------------------------------|---------------------------|
-----------------------------------|---------------------------|


   S S  S  S  S S  S  S  S  S S  S     S  S  S  S  S  S  S  S  S  S  S  S  
-----------------------------------|-----13-15-17-13-15-------12-13-------|
----------13---------11------------|--15----------------14-15-------11-10-|
-----9-12-------9-12----12-10-9----|--------------------------------------|
--10---------10-----------------10-|--------------------------------------|
-----------------------------------|--------------------------------------|
-----------------------------------|--------------------------------------|


   S  S  S  S  S  S  S  S  S  S  S  S     S  S  S  S  S  S  S  S  S  S  S  S  
--------13-17-------15-18-------12-15-|-----13-15-17-13-15-------12-13-15-17-|
-----15----------16----------13-------|--15----------------14-15-------------|
--14----------15----------12----------|--------------------------------------|
--------------------------------------|--------------------------------------|
--------------------------------------|--------------------------------------|
--------------------------------------|--------------------------------------|


   S   S  S  S  S  S   S   S  S  S  S  S  
--18s-15----------15s-18s-15-------------|
---------17----17------------17----------|
------------15------------------15-12----|
--------------------------------------14-|
-----------------------------------------|
-----------------------------------------|


   S  S  S  S  S  S  S  S  S  S  S  S     S  S  S  S  S  S  S  S  S  S  S  S  
-----13-15-17-13-15-------12-13-------|--------13-17-------15-18-------12-15-|
--15----------------14-15-------11-10-|-----15----------16----------13-------|
--------------------------------------|--14----------15----------12----------|
--------------------------------------|--------------------------------------|
--------------------------------------|--------------------------------------|
--------------------------------------|--------------------------------------|


   S  S  S  S  S  S  S  S  S  S  S  S  
-----13-15-17-13-15-------12-13-15-17-|
--15----------------14-15-------------|
--------------------------------------|
--------------------------------------|
--------------------------------------|
--------------------------------------|


   S   S  S  S  S  S   S   S  S  S  S  S  
--18s-15----------15s-18s-15-------------|
---------17----17------------17----------|
------------15------------------15-12----|
--------------------------------------14-|
-----------------------------------------|
-----------------------------------------|


   S  S  S  S  S  S  S  S  S  S  S  S     S  S  S  S  S  S  S  S  S  S  S  S  
-----------------17-18----------------|-----------------15-17----------------|
-----------15-18-------18-15----------|-----------13-17-------18-13----------|
--------14-------------------15-------|--------12-------------------14-------|
--12-15-------------------------17-15-|--10-14-------------------------15-12-|
--------------------------------------|--------------------------------------|
--------------------------------------|--------------------------------------|


  S  S  S  S  S  S  S  S  S  S  S  S    S  S S  S  S  S  S  S  S S  S S  
----------------13-15----------------|---------------12-----------------|
----------11-15-------17-11----------|---------10-14----14-11-----------|
-------10-------------------12-------|-------9----------------12-9------|
--8-12-------------------------14-10-|--7-11-----------------------11-7-|
-------------------------------------|----------------------------------|
-------------------------------------|----------------------------------|


   S  S  S  S  S  S  S  S  S  S  S  S    S  S S  S  S  S  S  S S  S S  S  
-----------------15-------------------|---------------12-----------------|
-----------13-17----17-13-------------|---------10-13----13-10-----------|
--------12----------------12----------|-------9----------------9---------|
--10-14----------------------14-10----|--7-11--------------------11-7----|
-----------------------------------12-|-------------------------------10-|
--------------------------------------|----------------------------------|


  S S S S  S S  S S S S S S    S S S S  S  S  S S S S S S  
-------------8--------------|-------------10--------------|
--------6-10---10-6---------|--------8-12----12-8---------|
------5-------------5-------|------7--------------7-------|
--3-7-----------------7-3---|--5-9------------------9-5---|
--------------------------5-|---------------------------7-|
----------------------------|-----------------------------|


  S S S S S S S S S S S S S S S S    S  S S S S  S S S S  S S S S S  S  S  
----------------------------------|---------------------------------------|
----------------------------------|---------------------------------------|
----------------------------------|-----------------------------7-9-------|
----------------------------------|-------7-8-7-------------7-8-----------|
--2-2-2-2---2-2-2-2-2-2-2---2-2-2-|--7-10-------10-7-5-7-10---------12-10-|
--0-0-0-0---0-0-0-0-0-0-0---0-0-0-|---------------------------------------|


  S S S S S S S S S S S S S S S S    S  S S S S  S S S S S S S S S S S  
----------------------------------|------------------------------------|
----------------------------------|------------------------------------|
----------------------------------|--------------------7-9-----7-9-----|
----------------------------------|-------7-8------7-8-----7-8-----7-8-|
--2-2-2-2---2-2-2-2-2-2-2-2-2-2-2-|--7-10-----7-10---------------------|
--0-0-0-0---0-0-0-0-0-0-0-0-0-0-0-|------------------------------------|


  E  E  S S S S S S S S S S S S    S  S S S S  S S S S  S S S S S S S  
--------------------------------|-------------------------------------|
--------------------------------|-------------------------------------|
--------------------------------|-----------------------------7-9-----|
--------------------------------|-------7-8-7-------------7-8-----8-7-|
--2--2--2-2-2-2---2-2-2-2-2-2-2-|--7-10-------10-7-5-7-10-------------|
--0--0--0-0-0-0---0-0-0-0-0-0-0-|-------------------------------------|


  E  E  S S S S S S S S S S S S    S  S S S S  S S S S  S S S S  S  S  S  
--------------------------------|----------------------------------------|
--------------------------------|----------------------------------10-11-|
--------------------------------|--------------------9-10-----9-10-------|
--------------------------------|-------7-8------7-8------7-8------------|
--2--2--2-2-2-2---2-2-2-2-2-2-2-|--7-10-----7-10-------------------------|
--0--0--0-0-0-0---0-0-0-0-0-0-0-|----------------------------------------|


              |-----5-----|                 |---3--|   
  E  E  E  E  E  E  E  E  E     E  E  E  E  E   E  E   
-----------------------------|------------------------|
-----------------------------|------------------------|
--------------------------9--|------------------------|
-----9--8--7-----9--8--7-----|-----9--8--7------------|
--7-----------7--------------|--7-----------7--10--9--|
-----------------------------|------------------------|


                       |--3--|                    |--6--|  |--6--|   
  E  E  E  E  E  E  E  E  E  E  E  E     E  E  E  E  E  E  E  E  E   
--------------------------------------|-----------------------------|
--------------------------------------|-----------------------------|
-----------------------------------9--|--------------------------9--|
-----9--8-----9--8--7-----9--8--5-----|-----9--8-----9--8--7--5-----|
--7--------7-----------7--------------|--7--------7-----------------|
--------------------------------------|-----------------------------|


                       |--3--|           |-3-| |-3-| |-3-| |-3-|            
  E  E  E  E  E  E  E  E  E  E  E  E     S S S S S S S S S S S S E  E  S S  
--------------------------------------|------------------------------------|
--------------------------------------|--------------------6-7-8-----------|
-----------------------------------9--|--------------5-7-9-------9-----9---|
-----9--8-----9--8--7-----9--8--5-----|--------5-7-9-------------9-----9---|
--7--------7-----------7--------------|--5-7-9-------------------7-----7---|
--------------------------------------|------------------------------------|


                          |----3----|     |----3----|     
  Q    Q    Q     Q       Q    Q    Q     Q    Q    Q     
-----------------------|---------------------------------|
-----------------------|---------------------------------|
-----------------------|-----------------------9----8----|
-------9----8----------|-------9----8--------------------|
--7--------------10----|--7--------------10--------------|
-----------------------|---------------------------------|


           |--6--|  |--6--|                          |--3--|         
  E  E  E  E  E  E  E  E  E     E  E  E  E  E  E  E  E  E  E  E  E   
-----------------------------|--------------------------------------|
-----------------------------|--------------------------------------|
--------------------------9--|-----------------------------------9--|
-----9--8-----9--8--7--5-----|-----9--8-----9--8--7-----9--8--5-----|
--7--------7-----------------|--7--------7-----------7--------------|
-----------------------------|--------------------------------------|


  |-3-| |-3-| |-3-| |-3-|               
  S S S S S S S S S S S S E  E  S S E   
---------------------------------------|
--------------------6-7-8--------------|
--------------5-7-9-------9-----9------|
--------5-7-9-------------9-----9------|
--5-7-9-------------------7-----7------|
---------------------------------------|


   S S S  S  S  S S S  S S S  S  S  S S  S  
-------------------------------------------|
-------------------------------------------|
-------7-11-12-11-7--------7-11-12-11------|
-----9--------------9----9------------9----|
--10------------------10----------------10-|
-------------------------------------------|


   S  S  S  S  S  S  S  S  S  S  S  S  S  S  S  S  
--------------------------------------------------|
--------------------------------------------------|
--------14-15-17-15-14----------14-15-17-15-------|
-----12----------------12----12-------------12----|
--14----------------------14-------------------14-|
--------------------------------------------------|


   S  S  S  S  S  S  S  S  S  S  S  S  S  S  S  S  
--------------------------------------------------|
--------------------------------------------------|
--------12-14-15-14-12----------12-14-17-14-------|
-----10----------------10----10-------------10----|
--13----------------------13-------------------13-|
--------------------------------------------------|


   S S S  S  S  S S S  S S S  S  S  S S  S  
-------------------------------------------|
-------------------------------------------|
-------7-11-12-11-7--------7-11-12-11------|
-----9--------------9----9------------9----|
--10------------------10----------------10-|
-------------------------------------------|


   S S S  S  S  S S S  S S S  S  S  S S  S  
-------------------------------------------|
-------------------------------------------|
-------7-11-12-11-7--------7-11-12-11------|
-----9--------------9----9------------9----|
--10------------------10----------------10-|
-------------------------------------------|


   S  S  S  S  S  S  S  S  S  S  S  S  S  S  S  S  
--------------------------------------------------|
--------------------------------------------------|
--------14-15-17-15-14----------14-15-17-15-------|
-----12----------------12----12-------------12----|
--14----------------------14-------------------14-|
--------------------------------------------------|


   S  S  S  S  S  S  S  S  S  S  S  S  S  S  S  S  
--------------------------------------------------|
--------------------------------------------------|
--------12-14-15-14-12----------12-14-17-14-------|
-----10----------------10----10-------------10----|
--13----------------------13-------------------13-|
--------------------------------------------------|


   S S S  S  S  S S S  S S S  S  S  S S  S     E   E   E   E   E   E   
-------------------------------------------|--------------------------|
-------------------------------------------|--------------------------|
-------7-11-12-11-7--------7-11-12-11------|--17--17--17--17--17--17--|
-----9--------------9----9------------9----|--------------------------|
--10------------------10----------------10-|--15--15--15--15--15--15--|
-------------------------------------------|--------------------------|


   E   E   E   E   E   E   E   E      E   E   E   E   E   E   E   E   
----------------------------------|----------------------------------|
----------------------------------|----------------------------------|
--15--15--15--15--15--15--15--15--|--14--14--14--14--14--14--14--14--|
----------------------------------|----------------------------------|
--13--13--13--13--13--13--13--13--|--12--12--12--12--12--12--12--12--|
----------------------------------|----------------------------------|


   E   E   E   E   E   E   E   E      E   E   E   E   E   E   
----------------------------------|--------------------------|
----------------------------------|--------------------------|
--13--13--13--13--13--13--13--13--|--17--17--17--17--21--21--|
----------------------------------|--------------------------|
--11--11--11--11--11--11--11--11--|--15--15--15--15--19--19--|
----------------------------------|--------------------------|


   E   E   E   E   E   E   E   E      E   E   E   E   E   E   E   E   
----------------------------------|----------------------------------|
----------------------------------|----------------------------------|
--15--15--15--15--15--15--15--15--|--14--14--14--14--14--14--14--14--|
----------------------------------|----------------------------------|
--13--13--13--13--13--13--13--13--|--12--12--12--12--12--12--12--12--|
----------------------------------|----------------------------------|


   E   E   E   E   E   E   E   E      S  S  S  S  S  S  S  S  S  S  S  S  
----------------------------------|-----13-15-17-13-15-------12-13-------|
----------------------------------|--15----------------14-15-------11-10-|
--13--13--13--13--13--13--13--13--|--------------------------------------|
----------------------------------|--------------------------------------|
--11--11--11--11--11--11--11--11--|--------------------------------------|
----------------------------------|--------------------------------------|


   S  S  S  S  S  S  S  S  S  S  S  S     S  S  S  S  S  S  S  S  S  S  S  S  
--------13-17-------15-18-------12-15-|-----13-15-17-13-15-------12-13-15-17-|
-----15----------16----------13-------|--15----------------14-15-------------|
--14----------15----------12----------|--------------------------------------|
--------------------------------------|--------------------------------------|
--------------------------------------|--------------------------------------|
--------------------------------------|--------------------------------------|


   S   S  S  S  S  S   S   S  S  S  S  S  
--18s-15----------15s-18s-15-------------|
---------17----17------------17----------|
------------15------------------15-12----|
--------------------------------------14-|
-----------------------------------------|
-----------------------------------------|


   S  S  S  S  S  S  S  S  S  S  S  S     S  S  S  S  S  S  S  S  S  S  S  S  
-----13-15-17-13-15-------12-13-------|--------13-17-------15-18-------12-15-|
--15----------------14-15-------11-10-|-----15----------16----------13-------|
--------------------------------------|--14----------15----------12----------|
--------------------------------------|--------------------------------------|
--------------------------------------|--------------------------------------|
--------------------------------------|--------------------------------------|


  T T T T T T  T T T T T S  S T T T T  T T T T T T   T T  T  T  T  
--------------10----------------------12--------------------------|
----------7-9----9-7--------------7-9----9-7----------------10-12-|
------7-9------------9-7------7-9------------9-7-------9-12-------|
--5-7--------------------7s-9--------------------9s-11------------|
------------------------------------------------------------------|
------------------------------------------------------------------|


   T  T  T  T T  S   S T  T  T  T  T  T  T  T T  T   T  T  T  T  T  T  T  T  T  
--12------------------------------14-------------------------------15-----------
-----12-10------------------10-12----12-10-------------------15-17----17-15-----
-----------12-9--------9-12----------------12-9--------14-16----------------16-1
----------------11s-12--------------------------12s-14--------------------------
--------------------------------------------------------------------------------
--------------------------------------------------------------------------------


   T  S  T  T  T  T  T  T  T  T  T  S   S  T  T  T  T  T  T  T  T  T  T  T  T  T
--------------------19--------------------------------15------------------------
--------------17-20----20-17--------------------15-17----17-15------------------
--------17-19----------------19-17--------14-16----------------16-14-12---------
---L-17----------------------------20s-22-------------------------------15-14-12
--------------------------------------------------------------------------------
--------------------------------------------------------------------------------


   S E  E  S   E     E  S E  T T S S E  S E  T T S S  
------------------|----------------------------------|
------------------|----------------------------------|
------------------|----------------------------------|
-----5--7--9s-10--|-------5--4-5-4-0-2--x-5--4-5-4-2-|
---L--------------|--2--x----------------------------|
------------------|--0--x----------------------------|


  E  S E  T T S S E  S S S S S S    E  S E  T T S S E  S E  T T S S  
---------------------------------|----------------------------------|
---------------------------------|----------------------------------|
---------------------------------|----------------------------------|
--0--x-5--4-5-4-0----------------|-------5--4-5-4-0-2--x-5--4-5-4-2-|
------------------3--------------|--2--x----------------------------|
---------------------0-2-0-2-3-5-|--0--x----------------------------|


                     |--3--|  |--3--|                                          
  E  S E  T T S S S  S  S  S  S  S  S E  S    E  S E  T T S S E  S E  T T S S  
--------------------19-17-15---------------|----------------------------------|
-----------------------------19-15---------|----------------------------------|
-----------------------------------12-9--L-|----------------------------------|
--0--x-5--4-5-4-0--------------------------|-------5--4-5-4-0-2--x-5--4-5-4-2-|
------------------3------------------------|--2--x----------------------------|
-------------------------------------------|--0--x----------------------------|


  E  S E  T T S S E  S S S S S S    E  S E  T T S S E  S E  T T S S  
---------------------------------|----------------------------------|
---------------------------------|----------------------------------|
---------------------------------|----------------------------------|
--0--x-5--4-5-4-0----------------|-------5--4-5-4-0-2--x-5--4-5-4-2-|
------------------3--------------|--2--x----------------------------|
---------------------0-2-0-2-3-5-|--0--x----------------------------|


  E  S E  T T S S E  S S S S S S    S  S S E  S S  S S E  S S S S S  
---------------------------------|----------------------------------|
---------------------------------|----------------------------------|
---------------------------------|----------------------------------|
--0--x-5--4-5-4-0----------------|--------------------------5-5-5-5-|
------------------3--------------|--7s-4---4--4-7s-4---4--4-3-3-3-3-|
---------------------0-2-0-2-3-5-|--5s-2---2--2-5s-2---2--2---------|


  S  S S E  S S  S S E  S S S S S    S  S S E  S S  S S E  S S S S S  
----------------------------------|----------------------------------|
----------------------------------|----------------------------------|
----------------------------------|----------------------------------|
--------------------------4-4-4-4-|--------------------------5-5-5-5-|
--7s-4---4--4-7s-4---4--4-2-2-2-2-|--7s-4---4--4-7s-4---4--4-3-3-3-3-|
--5s-2---2--2-5s-2---2--2---------|--5s-2---2--2-5s-2---2--2---------|


  T T S S T T S S T T S S T T S S T T S S S    S  S S E  S S  S S E  S S S S S  
--------------------------------------------|----------------------------------|
--------------------------------------------|----------------------------------|
--------------------------------------------|----------------------------------|
--------------------------------------------|--------------------------5-5-5-5-|
--2-2-2---2-2-2---2-2-2---2-2-2---2-2-2---2-|--7s-4---4--4-7s-4---4--4-3-3-3-3-|
--0-0-0---0-0-0---0-0-0---0-0-0---0-0-0---0-|--5s-2---2--2-5s-2---2--2---------|


  S  S S E  S S  S S E  S S S S S    S  S S E  S S  S S E  S S S S S  
----------------------------------|----------------------------------|
----------------------------------|----------------------------------|
----------------------------------|----------------------------------|
--------------------------4-4-4-4-|--------------------------5-5-5-5-|
--7s-4---4--4-7s-4---4--4-2-2-2-2-|--7s-4---4--4-7s-4---4--4-3-3-3-3-|
--5s-2---2--2-5s-2---2--2---------|--5s-2---2--2-5s-2---2--2---------|


  T T S S T T T T T T S E  S S S T T T T S S  
---------------------------------------------|
---------------------------------------------|
---------------------------------------------|
---------------------------------------------|
--2-2-2---2-2-2-2-2-2-2----2---2-2-2-2-2-2---|
--0-0-0---0-0-0-0-0-0-0----0---0-0-0-0-0-0---|


  T T S S T T T T T T S E  S S S T T T T S S  
---------------------------------------------|
---------------------------------------------|
---------------------------------------------|
---------------------------------------------|
--2-2-2---2-2-2-2-2-2-2----2---2-2-2-2-2-2---|
--0-0-0---0-0-0-0-0-0-0----0---0-0-0-0-0-0---|


  T T S S T T T T T T S E  S S S T T T T S S  
---------------------------------------------|
---------------------------------------------|
---------------------------------------------|
---------------------------------------------|
--2-2-2---2-2-2-2-2-2-2----2---2-2-2-2-2-2---|
--0-0-0---0-0-0-0-0-0-0----0---0-0-0-0-0-0---|


  T T S S T T T T T T S E  S S S T T T T S S  
---------------------------------------------|
---------------------------------------------|
---------------------------------------------|
---------------------------------------------|
--2-2-2---2-2-2-2-2-2-2----2---2-2-2-2-2-2---|
--0-0-0---0-0-0-0-0-0-0----0---0-0-0-0-0-0---|


  T T S S T T T T T T S E  S S S T T T T S S    S  S S S S S S  S S S S S  
---------------------------------------------|----------------------------|
---------------------------------------------|----------------------------|
---------------------------------------------|----------------------------|
---------------------------------------------|---------8---9--------8---9-|
--2-2-2---2-2-2-2-2-2-2----2---2-2-2-2-2-2---|--7-10-7---7---7-10-7---7---|
--0-0-0---0-0-0-0-0-0-0----0---0-0-0-0-0-0---|----------------------------|


  S  S S S S S S  S S  S S S    S  S S S S S S  S S S S S  
-----------------------------|----------------------------|
-----------------------------|----------------------------|
-----------------------------|----------------------------|
---------8---9--------10-9-8-|---------8---9--------8---9-|
--7-10-7---7---7-10-7--------|--7-10-7---7---7-10-7---7---|
-----------------------------|----------------------------|


  S  S S S S S S  S S  S S S    S  S S S S S S  S S S S S  
-----------------------------|----------------------------|
-----------------------------|----------------------------|
-----------------------------|----------------------------|
---------8---9--------10-9-8-|---------8---9--------8---9-|
--7-10-7---7---7-10-7--------|--7-10-7---7---7-10-7---7---|
-----------------------------|----------------------------|


  S  S S S S S S  S S  S S S    S  S S S S S S  S S S S S  
-----------------------------|----------------------------|
-----------------------------|----------------------------|
-----------------------------|----------------------------|
---------8---9--------10-9-8-|---------8---9--------8---9-|
--7-10-7---7---7-10-7--------|--7-10-7---7---7-10-7---7---|
-----------------------------|----------------------------|


  S  S S S S S S  S S  S S S    E  S  E  E  S S  E  Q     
-----------------------------|---------------------------|
-----------------------------|---------------------------|
-----------------------------|-------10--9--L-x-12--9----|
---------8---9--------10-9-8-|--------x--x----x--x--x----|
--7-10-7---7---7-10-7--------|--2--x--8--7--L-x-10--7----|
-----------------------------|--0--x---------------------|


  S S T T S S S S S S S    E  S  E  E  S S  E  E  S    S  E  Q    E  S  
------------------------|---------------------------|------------------|
------------------------|---------------------------|------------------|
------------------------|-------10--9--L-x-12--9--L-|--x-10--7----L--L-|
------------------------|--------x--x----x--x--x----|--x--x--x----L--L-|
--2-2-2-2-2-2-2-2-2-2-2-|--2--x--8--7--L-x-10--7--L-|--x--8--5----L--L-|
--0-0-0-0-0-0-0-0-0-0-0-|--0--x---------------------|------------------|


  E  S  E  E  S S  E  Q       S S T T S S S S S S S  
---------------------------|------------------------|
---------------------------|------------------------|
-------10--9--L-x-12--9----|------------------------|
--------x--x----x--x--x----|------------------------|
--2--x--8--7--L-x-10--7----|--2-2-2-2-2-2-2-2-2-2-2-|
--0--x---------------------|--0-0-0-0-0-0-0-0-0-0-0-|


  E  S  E  E  S S  E    E  S    S E   E  S S E  S    E  S  E  E  S S  E  Q     
-----------------------------|--------------------|---------------------------|
-----------------------------|--------------------|---------------------------|
-------10--9--L-x-12s--14----|--x-9s--8--L-x-5--L-|-------10--9--L-x-12--9----|
--------x--x----x--x----x--L-|--x-xs--x--L-x-x--L-|--------x--x----x--x--x----|
--2--x--8--7--L-x-10s--12--L-|--x-7s--6--L-x-3--L-|--2--x--8--7--L-x-10--7----|
--0--x---------------------L-|--------------------|--0--x---------------------|


  S S T T S S S S S S S    E  S  E  E  S S  E  E  S    S  E  Q    E  S  
------------------------|---------------------------|------------------|
------------------------|---------------------------|------------------|
------------------------|-------10--9--L-x-12--9--L-|--x-10--7----L--L-|
------------------------|--------x--x----x--x--x----|--x--x--x----L--L-|
--2-2-2-2-2-2-2-2-2-2-2-|--2--x--8--7--L-x-10--7--L-|--x--8--5----L--L-|
--0-0-0-0-0-0-0-0-0-0-0-|--0--x---------------------|------------------|


  E  S  E  E  S S  E  Q       S S T T S S S S S S S  
---------------------------|------------------------|
---------------------------|------------------------|
-------10--9--L-x-12--9----|------------------------|
--------x--x----x--x--x----|------------------------|
--2--x--8--7--L-x-10--7----|--2-2-2-2-2-2-2-2-2-2-2-|
--0--x---------------------|--0-0-0-0-0-0-0-0-0-0-0-|


  E  S  E  E  S S  E    E  S    S E   E  S S E   E  S    W                 
-----------------------------|------------------------|-------------------|
-----------------------------|------------------------|-------------------|
-------10--9--L-x-12s--14----|--x-9s--8--L-x-6s--5--L-|-------------------|
--------x--x----x--x----x--L-|--x-xs--x--L-x-xs--x--L-|-------------------|
--2--x--8--7--L-x-10s--12--L-|--x-7s--6--L-x-4s--3--L-|--2----------------|
--0--x---------------------L-|------------------------|--0----------------|


  W                                      
-------------------|-------------------||
-------------------|-------------------||
-------------------|-------------------||
-------------------|-------------------||
--L----------------|-------------------||
--L----------------|-------------------||




Duration Legend
---------------
W - whole
H - half
Q - quarter
E - 8th
S - 16th
T - 32nd
X - 64th
. - note dotted
|-n-|  - n-tuplets


Tablature Legend
----------------
L - tied note
x - dead note
g - grace note
(n) - ghost note
> - accentuded note
NH - natural harmonic
AH - artificial harmonic
TH - tapped harmonic
SH - semi harmonic
PH - pitch harmonic
h - hammer on
p - pull off
b - bend
br - bendRelease
pb - preBend
pbr - preBendRelease
brb - bendReleaseBend
\n/ - tremolo bar dip
\n - tremolo bar dive
-/n - tremolo bar Release up
/n\ - tremolo bar inverted dip
/n - tremolo bar return
-\n - tremolo bar Release down
S - shift slide
s - legato slide
/ -  slide into from below or out of upwards
\ -  slide into from above or out of downwards
~ - vibrato
W - wide vibrato
tr - trill
TP - tremolo picking
T - tapping
S - slap
P - pop
< - fade in
^ - brush up
v - brush down
comments
print report bad tab
7 comments total. Showing first comments.
0 reply
soundslave wrote on July 30 2008, 10:41 am

Who tabbed this? Luke Hoskin?

0 reply
thebearclan wrote on December 6 2008, 11:19 am

do you mean it might be stolen goods, or it sucks???
this song is cool :D

0 reply
thebearclan wrote on December 6 2008, 11:52 am

ahhhhh, now that i've played it, i gotcha, lol

I want to post or [tab]
guest
You may want to rate the tab now too:
select rating
Please do not post tabs as comments. Select "correction" instead!