Oops, an error
Loading. Please wait.

Nautical Tab

ver1
ver1

Whole song

Interactive

More versions @911Tabs.com
6,557 views 3 this week
12 commentsread comments
1 2 3 4 5
excellent!
x 8
add to favorites launch autoscroll
font size
0
reset
Autoscroll
+/-
esc
set tempo
stop
Contributor
Difficulty
advanced
WARNING: You are trying to view
                                    content from Ultimate-Guitar.com
                                    in an unauthorized application,
                                    which is prohibited.

                                    Please use an official Ultimate
                                    Guitar Tabs application for iPhone,
                                    iPad or Android to access legitimate
                                    chords, guitar, bass, and drum tabs
                                    from Ultimate-Guitar.com database.

                                    Type "ultimate guitar tabs" in Apple
                                    App Store's or Android Market's
                                    search to find the application.
Guitar 1 - Luke
Guitar 2 - Tim

* = palm mute
v = vibrato
ph = pinch harmonic
/ = slide

Guitar 1
E----------------------------------------------------------------|
B----------------------------------------------------------------|
G--------------16---11-/-14--12-------------12-/-14---9-/-12—11--|
D---------------x---x--/--x---x--------------x-/--x---x-/--x--x--|
A--2-222-2-222-14---9--/-12--10-2-222-2-222-10-/-12---7-/-10—-9--|
E--0-000-0-000----0-------------0-000-0-000---------0------------|
   * *** * ***    *             * *** * ***         *

Guitar 2
E----------------------------------------------------------------|
B----------------------------------------------------------------|
G--------------12---8--/-11--9--------------9-/-11----5-/-9--8---|
D---------------x---x--/--x--x--------------x-/--x----x-/-x--x---|
A--2-222-2-222-10---6--/--9--7--2-222-2-222-7-/--9----3-/-7--6---|
E--0-000-0-000----0-------------0-000-0-000--------0-------------|
   * *** * ***    *             * *** * ***        *
Guitar 1
E-----------------------------------------------------------------|
B-----------------------------------------------------------------|
G--------------16---11-/-14--12-----------------------------------|
D---------------x---x--/--x---x-----------------------------------|
A--2-222-2-222-14---9--/-12--10----10-14----9-12---7-10----9-12---|
E—-0-000-0-000----0-------------12-------10------8------10--------|
   * *** * ***    *             *  *     *  *    * *     * *

Guitar 2
E----------------------------------------------------------------|
B----------------------------------------------------------------|
G--------------12---8-/-11---9-----------------------------------|
D---------------x---x-/--x---x------9-12---7-10---5-9---7-10-----|
A--2-222-2-222-10---6-/--9---7—--10------9------7-----9----------|
E—-0-000-0-000----0----------------------------------------------| (X 2)
   * *** * ***    *              * *     * *    * *   * *

Guitar 1 (second ending)
E---------------------------------|
B---------------------------------|
G---------------------------------|
D---------------------------------|
A-----10-14----9-12---7-9-10-9----|
E--12-------10--------------------|
   *  *     *  *

Guitar 2 (second ending)
E---------------------------------|
B---------------------------------|
G---------------------------------|
D-----9-12---7-10---5-7-9-7-------|
A--10------9----------------------|
E---------------------------------|
   * *     * *


Guitar 1
E----------------------------------------------------------------|
B---------------------8v------8----------------------------------|
G--------------8-9-11-----------11-9-8-------------------------8-|
D------------9-------------------------10-9-8ph-v------------9---|
A--222--7-10--------------222----------------------222--7-10-----|
E--000--------------------000----------------------000-----------|
   ***                    ***                      ***

Guitar 2
E----------------------------------------------------------------|
B----------------------------------------------------------------|
G----------------------------------------------------------------|
D----------------------------------------------------------------|
A--222--------------------222----------------------222-----------|
E--000--------------------000----------------------000-----------|
   ***                    ***                      ***

Guitar 1                                           (second ending)
E--------------8--------------------------------  ----------------|
B------8-10-12---12-10-8------------------------  ----------------|
G-9-11-------------------11-9-8-----------------  ----------------|
D-------------------------------10-9-8ph-v------  ----------9-----|
A-----------------------------------------------  ---7--10----7---|
E-----------------------------------------------  ----------------|


Guitar 2
E------------------------------------------------|
B------------------------------------------------|
G------------------------------------------------|
D------------------------------------------------|
A----------------10-14----9-12---7-10---9-12-----|
E--------------12------10------8------10---------|
               *  *     *  *   * *    * *


Guitar 1
E----------------------------------------------------------------|
B----------------------------------------------------------------|
G----------------------------------------------------------------|
D------7-/-9---7-5-------5-7-5-4-----7-/-9-----8--5--7--3--5-----|
A--2---5-/-7-------7-6-7---------2---5-/-7-----8--5--7--3--5-----|
E--0-0-------0-------------------0-0-------0---6--3--5--1--3-----|
     *       *                     *       *      *  *  *
Guitar 2
E----------------------------------------------------------------|
B----------------------------------------------------------------|
G-----11-/-12---------------------------11-/-12------------------|
D------x-/--x--10-9--------9-12-9/7------x-/-x----8--5--7--3--5--|
A--2---9-/-10------10-9-10-----------2---9-/-10---8--5--7--3--5--|
E--0-0--------0----------------------0-0--------0-6--3--5--1--3—-| (X 4)
     *        *                        *             *  *  *

Guitar 1 (second ending)
E---------------|
B---------------|
G---------------|
D--8--5--7--5---|
A--8--5--7--5---|
E--6--3--5--3---|
   *  *  *


Guitar 2 (second ending)
E-----------------|
B-----------------|
G-----------------|
D--8--5--7--5-----|
A--8--5--7--5-----|
E--6--3--5--3-----|
   *  *  *


Guitar 1
E--0-----------------0----------------0-------------0---------------|
B---0----------------0----------------0-------------0---------------|
G----0---------------0----------------4-------------2---------------|
D-----2-------------------------------5-------------3---------------|
A-----2-------------------------------5-------------3---------------|
E-----0-------------------------------3-------------1---------------|


Guitar 2
E--0----------------------------------0-------------0---------------|
B---0---------------------------------0-------------0---------------|
G----0--------------------------------4-------------2---------------|
D-----2-------------------------------5-------------3---------------|
A-----2-------------------------------5-------------3---------------|
E-----0-------------------------------3-------------1---------------| x2


Guitar 1
E-----------------------------------------------------------------|
B-----------------------------------------------------------------|
G-----------------------------------------------------------------|
D-x-x-x-x------------------------8-7--------7--8------------8-7-5-|
A-x-x-x-x-2-2--8-7-5--2-2--8-7-5-----2-2--7-5--7--2-2-—8-7-5------|
E-x-x-x-x-0-0---------0-0------------0-0----------0-0-------------|

Guitar 2
E----------------------------------------------------------------|
B----------------------------------------------------------------|
G-------------------------------------------7--9-----------------|
D-x-x-x-x-----------------------------------x--x-----------------|
A-x-x-x-x-2-2---------2-2------------2-2--2-5--7---2-2-----------|
E-x-x-x-x-0-0---------0-0------------0-0--0--------0-0-----------|


Guitar 1
E------------------ --0--------------------0--------------0-------|
B------------------ ---0-------------------0--------------0-------|
G------------------ ----0------------------4--------------2-------|
D-7-5-------------- -----2-----------------5--------------3-------|
A-----2-2--8-7-5--2 -----2-----------------5--------------3-------|
E-----0-0---------0 -----0-----------------3--------------1-------|

Guitar 2
E------------------  --0---------------------0--------------0--------|
B------------------  ---0--------------------0--------------0--------|
G------------------  ----0-------------------4--------------2--------|
D------------------  -----2------------------5--------------3--------|
A----2-2---------2-  -----2------------------5--------------3--------|
E----0-0---------0-  -----0------------------3--------------1--------|x2

Guitar 1
E----------------------------------|
B----------------------------------|
G----------------------------------|
D----------------------------------|
A-2-2---2-2---2-2-2-2--2-2-2--2----|
E-0-0---0-0---0-0-0-0--0-0-0--0----|
  * *   * *   * * * *  * * *  *

Guitar 2
E-----------------------------------|
B-----------------------------------|
G-----------------------------------|
D-----------------------------------|
A-----------------------------------|
E-0-0---0-0---0-0-0-0--0-0-0--0-----| (x2)
  * *   * *   * * * *  * * *  *

Guitar 1
E—-15p12---12-15p14-------14/12------12-14-12-11------11/17------|
B--------12---------15--15-----13--13-----------12—12------------|
G---------------------14---------12---------------11-------------|
D----------------------------------------------------------------|
A----------------------------------------------------------------|
E----------------------------------------------------------------|

Guitar 2
E----------------------------------------------------------------|
B----------------------------------------------------------------|
G----------------------------------------------------------------|
D----------------------------------------------------------------|
A----------------------------------------------------------------|
E--0---0-------0----0------0---0---0---0------0--0--0---0--------| (x2)
   *   *       *    *      *   *   *   *      *  *  *   *

Guitar 1                                           t       t
E—10h14p10------10h14p10------10h14p10------10h14-17p14p10-19p14p10-|
B---------12--12--------12--12--------12--12------------------------|
G-----------11------------11------------11--------------------------|
D-------------------------------------------------------------------|
A-------------------------------------------------------------------|
E-------------------------------------------------------------------|

Guitar 2
E----------------------------------------------------------------|
B----------------------------------------------------------------|
G----------------------------------------------------------------|
D--4--4-------4--4-------4--4--4--4-----------4--4---4----4------|
A--2--2-------2--2-------2--2--2--2-----------2--2---2----2------|
E----------------------------------------------------------------|
   *  *       *  *       *  *  *  *           *  *   *    *


Guitar 1                                           t         t
E10h14p10------10h14p10------10h14p10-----10h14-17p14p10h14-19p14p10h14-|
B--------12--12--------12--12--------12--12-----------------------------|
G----------11------------11------------11-------------------------------|
D-----------------------------------------------------------------------|
A-----------------------------------------------------------------------|
E-----------------------------------------------------------------------|

Guitar 2
E----------------------------------------------------------------|
B----------------------------------------------------------------|
G----------------------------------------------------------------|
D--4--4-------4--4-------4--4--4--4-----------4--4---4----4------|
A--2--2-------2--2-------2--2--2--2-----------2--2---2----2------|
E----------------------------------------------------------------|
   *  *       *  *       *  *  *  *           *  *   *    *

Guitar 1
E----------------------------------------------------------------|
B----------------------------------------------------------------|
G----------------------------------------------------------------|
D------7-/-9---7-5-------5-7-5-4-----7-/-9-----8--5--7--3--5-----|
A--2---5-/-7-------7-6-7---------2---5-/-7-----8--5--7--3--5-----|
E--0-0-------0-------------------0-0-------0---6--3--5--1--3-----|
     *       *                     *       *      *  *  *
Guitar 2
E----------------------------------------------------------------|
B----------------------------------------------------------------|
G-----11-/-12---------------------------11-/-12------------------|
D------x-/--x--10-9--------9-12-9/7------x-/-x----8--5--7--3--5--|
A--2---9-/-10------10-9-10-----------2---9-/-10---8--5--7--3--5--|
E--0-0--------0----------------------0-0--------0-6--3--5--1--3—-| (X 2)
     *        *                        *             *  *  *

Guitar 1
E----------------------------------------------------------------|
B----------------------------------------------------------------|
G----------------------------------------------------------------|
D----------------------------------------------------------------|
A----------------------------2-2----------------------------2-2--|
E--6-2-0-5-2-0-6-2-0-5-2-0---0-0---6-2-0-5-2-0-8-5-0-7-4-0--0-0--|
                             * *                            * *
Guitar 2
E-----------------------------------------------------------------|
B-----------------------------------------------------------------|
G-----------------------------------------------------------------|
D-----------------------------------------------------------------|
A-----------------------------2-2---------------------------2-2---|
E-----------------------------0-0---------------------------0-0---| (x2)
                              * *                           * *
Guitar 1
E-----------------------------------------------------------------|
B-----------------------------------------------------------------|
G-----------------------------------------------------------------|
D-----------------------------------------------------------------|
A--------------------------2-2-2-2-------------------------2-2--2-|
E--6-2-0-5-2-0-6-2-0-5-2-0-0-0-0-0-6-2-0-5-2-0-8-5-0-7-4-0-0-0--0-|
                           * * * *                         * *  *
Guitar 1
E-----------------------------------------------------------------|
B-----------------------------------------------------------------|
G-----------------------------------------------------------------|
D-----------------------------------------------------------------|
A--------------------------2-2-2-2-------------------------2-2--2-|
E--6-2-0-5-2-0-6-2-0-5-2-0-0-0-0-0-6-2-0-5-2-0-8-5-0-7-4-0-0-0—-0-| (x2)
                           * * * *                         * *  *


Guitar 1
E-------------------------------------------------------------------|
B-------------------------------------------------------------------|
G-----------------22-2222-22-2222--55-5555-55-5555----------4-4-4-4-|
D-22-2222-22-2222-22-2222-22-2222--55-5555-55-5555--3-3-3-3-4-4-4-4-|
A-22-2222-22-2222-00-0000-00-0000--33-3333-33-3333--3-3-3-3-2-2-2-2-|
E-00-0000-00-0000------------------33-3333-33-3333--1-1-1-1---------|


 Guitar 2
E-------------------------------------------------------------------|
B-------------------------------------------------------------------|
G-----------------22-2222-22-2222--55-5555-55-5555----------4-4-4-4-|
D-22-2222-22-2222-22-2222-22-2222--55-5555-55-5555--3-3-3-3-4-4-4-4-|
A-22-2222-22-2222-00-0000-00-0000--33-3333-33-3333--3-3-3-3-2-2-2-2-|
E-00-0000-00-0000------------------33-3333-33-3333--1-1-1-1---------|




Guitar 1
E--------------------------------------------------------------------|
B--------------------------------------------------------------------|
G------------------------------------------5----------------44444444-|
D---------2--------222222222-22-22-555555555-55-5---------3-44444444-|
A-222222222--22-22-000000000-00-00-333333333-33-3-333333333-22222222-|
E-000000000--00-00-----------------333333333------111111111----------|
  ********         ********        ********       ********

Guitar 2
E--------------------------------------------------------------------|
B--------------------------------------------------------------------|
G------------------------------------------5----------------44444444-|
D---------2--------222222222-22-22-555555555-55-5---------3-44444444-|
A-222222222--22-22-000000000-00-00-333333333-33-3-333333333-22222222-|
E-000000000--00-00-----------------333333333------111111111----------|
  ********         ********        ********       ********


Guitar 1
E----------------------------------------------------------------|
B----------------------------------------------------------------|
G--------------16---11-/-14--12-------------12-/-14---9-/-12—11--|
D---------------x---x--/--x---x--------------x-/--x---x-/--x--x--|
A--2-222-2-222-14---9--/-12--10-2-222-2-222-10-/-12---7-/-10—-9--|
E--0-000-0-000----0-------------0-000-0-000---------0------------|
   * *** * ***    *             * *** * ***         *

Guitar 2
E----------------------------------------------------------------|
B----------------------------------------------------------------|
G--------------12---8--/-11--9--------------9-/-11----5-/-9--8---|
D---------------x---x--/--x--x--------------x-/--x----x-/-x--x---|
A--2-222-2-222-10---6--/--9--7--2-222-2-222-7-/--9----3-/-7--6---|
E--0-000-0-000----0-------------0-000-0-000--------0-------------|
   * *** * ***    *             * *** * ***        *
Guitar 1
E-----------------------------------------------------------------|
B-----------------------------------------------------------------|
G--------------16---11-/-14--12-----------------------------------|
D---------------x---x--/--x---x-----------------------------------|
A--2-222-2-222-14---9--/-12--10----10-14----9-12---7-10----9-12---|
E—-0-000-0-000----0-------------12-------10------8------10--------|
   * *** * ***    *             *  *     *  *    * *     * *

Guitar 2
E----------------------------------------------------------------|
B----------------------------------------------------------------|
G--------------12---8-/-11---9-----------------------------------|
D---------------x---x-/--x---x------9-12---7-10---5-9---7-10-----|
A--2-222-2-222-10---6-/--9---7—--10------9------7-----9----------|
E—-0-000-0-000----0----------------------------------------------| (X 2)
   * *** * ***    *              * *     * *    *
Guitar 1
E----------------------------------------------------------------|
B----------------------------------------------------------------|
G----------------------------------------------------------------|
D----------2222-2222-2222-2222-----22222-2222-2222-2222----------|
A--222-----2222 2222-2222 2222—22--22222-2222-2222-2222-22-------|
E--000-----0000-0000-0000-0000—00--00000-0000-0000-0000-00-------|
   ***                         **                       **
Guitar 2
E----------------------------------------------------------------|
B----------------------------------------------------------------|
G----------------------------------------------------------------|
D-----------2222-2222-2222-2222-----2222-2222-2222-2222----------|
A------222--2222-2222-2222-2222-22--2222-2222-2222-2222-22-------|
E------000--0000-0000-0000-0000-00--0000-0000-0000-0000-00-------|
       ***                      **                      **

Guitar 1
E-----------------------------------------------------------------------|
B-----------------------------------------------------------------------|
G-------------------11-12-11---------------------------11-12-11---------|
D----------10-12-13----------13-12-------------10-12-13---------13-12---|
A-10-12-13-------------------------13--10-12-13----------------------13-|
E-----------------------------------------------------------------------|

Guitar 2
E-------------------------------------------------------------------|
B-------------------------------------------------------------------|
G-------------------------------------------------------------------|
D-2---2---2---2----2---2---2---2----2---2---2---2---2--2--2--2------|
A-2---2---2---2----2---2---2---2----2---2---2---2---2—-2--2--2---22-|
E-3---3---3---3----3---3---3---3----3---3---3---3---3--3--3--3---33-| x2
                                                                 **

Guitar 1
E-------------------------------------------------------------8-|
B-------------8ph-v---8--------------------------------8-10-12--|
G-------8-9-11---------11-9-8-------------------8-9-11----------|
D------9---------------------10-9-8ph-v-------9-----------------|
A--7-10----------------------------------7-10-------------------|
E---------------------------------------------------------------|

Guitar 2
E----------------------------------------------------------------|
B----------------------------------------------------------------|
G----------------------------------------------------------------|
D----------------------------------------------------------------|
A--2-2-2-2-------2-2-2-2-------2-2-2-2---------2-2-2-2-----22----|
E--0-0-0-0-------0-0-0-0-------0-0-0-0---------0-0-0-0-----00----|
                                                           **
Guitar 1
E---------------------------|
B-12-10-8-------------------|
G--------11-9-8-------------|
D--------------10-9-8ph-v---|
A---------------------------|
E---------------------------|

Guitar 2
E---------------|
B---------------|
G---------------|
D-2222-2222-----|
A-2222-2222-22--|
E-0000-0000-00--|
            **

Guitar 1
E----------------------------------------------------------------|
B-------------------11ph-v---------11----------------------------|
G----------11-12-14--------------------14-12-11------------------|
D-------12--------------------------------------13-12-11ph-v-----|
A-10-13----------------------------------------------------------|
E----------------------------------------------------------------|

Guitar 2
E-----------------------------------------------------------------|
B-----------------------------------------------------------------|
G-----------------------------------------------------------------|
D-5--5--5---5------5---5---5---5-----5--5--5--5-----5--5--5-5-----|
A-5--5--5---5------5---5---5---5-----5--5--5--5-----5--5--5-5--55-|
E-3--3--3---3------3---3---3---3-----3--3--3--3-----3--3--3-3--33-|
                                                               **

Guitar 1
E---------------------------11------------------------------------------|
B------------------11-13-15----15-13-11---------------------------------|
G----------11-12-14---------------------14-12-11------------------------|
D-------12--------------------------------------13-12-11----------------|
A-10-13-------------------------------------------------13-12-10101010--|
E-----------------------------------------------------------------------|

Guitar 2
E----------------------------8-----------------------------------------|
B------------------------------11-10-8---------------------------------|
G--------------------------------------11-8-7--------------------------|
D-5-5-5-5----5-5-5-5--------------------------10-8-7-------------------|
A-5-5-5-5----5-5-5-5---------------------------------10-9-10101010/----|
E-3-3-3-3----3-3-3-3---------------------------------------------------|
comments
print report bad tab
12 comments total. Showing first comments.
0 reply
poor_white_boy9 wrote on December 6 2005, 02:05 pm

that is one hard ****ing song. Good tab though, nice job.

0 reply
guitar_master6 wrote on December 14 2005, 05:30 pm

nice tab everything seems perfect

0 reply
sweepdreams wrote on December 21 2005, 11:30 am

Is this exported from power tab or guitar pro? If so can i get the file of you? it's spot on

I want to post or [tab]
guest
You may want to rate the tab now too:
select rating
Please do not post tabs as comments. Select "correction" instead!