Oops, an error
Loading. Please wait.

No Stars Over Bethlehem Bass Tab

3,110 views 3 this week
no commentswrite comment
1 2 3 4 5
excellent!
x 1
Autoscroll
+/-
esc
set tempo
stop
Contributor
Difficulty
advanced
WARNING: You are trying to view
                                    content from Ultimate-Guitar.com
                                    in an unauthorized application,
                                    which is prohibited.

                                    Please use an official Ultimate
                                    Guitar Tabs application for iPhone,
                                    iPad or Android to access legitimate
                                    chords, guitar, bass, and drum tabs
                                    from Ultimate-Guitar.com database.

                                    Type "ultimate guitar tabs" in Apple
                                    App Store's or Android Market's
                                    search to find the application.
PROTEST THE HERO-NO STARS OVER BETHLEHEM
KEZIA(2005)

i have to give 'Tom Delonge II' credit for this i just put it in ASCII from guitar pro.

         No Stars Over Bethlehem                             
              Protest the Hero

Arif Mirabdolbaghi



      S S S S S S S S S S S S S S S S    S E  S  S E  S  S S S S S E  S  
F#||----------------------------------|---------------------------------|
C#||----------------------------------|-------6s-7----9\---3------------|
G#||----------------------------------|--7------------------------------|
D#||--0-0-0-0-0-0-0-0-0-0-0-0-0-0-0-0-|------------------------0-0------|


  S S S S S S S S S S S S S S S S    S E  S  S E  S  S S S S S Q    E  S  
----------------------------------|--------------------------------------|
----------------------------------|-------6s-7----9\---3-----------------|
----------------------------------|--7-----------------------------------|
--0-0-0-0-0-0-0-0-0-0-0-0-0-0-0-0-|------------------------0-0-----------|


  S S S S S S S S S S S S S S S S    E  S E  E  S  
----------------------------------|---------------|
----------------------------------|---------------|
----------------------------------|---------------|
--0-0-0-0-0-0-0-0-0-0-0-0-0-0-0-0-|--0----0-------|


  E  S S S  E  S S S E  S S S S    E  S S S  E  S S S S S  E  E   
--------------------------------|--------------------------------|
---------6s-7--9----------------|---------6s-7--9----------------|
-------------------8------------|-------------------8-----10--9--|
--0----0----------------0---0---|--0----0---------------0--------|


                        |--3--|                                    
  E  S S S  E  S S S E  E  E  E     E  S S S  E  S S S S S  E  E   
---------------------------------|--------------------------------|
---------6s-7--9-----------------|---------6s-7--9----------------|
-------------------8-------------|-------------------8-----10--9--|
--0----0----------------0--0--0--|--0----0---------------0--------|


  S Q    S T S S S S E  S S T S S E  S  
---------------------------------------|
---------------------------------------|
---------------------------------------|
--0------0---0-0---0------0---0-0------|


              |---3---|                      
  S S S E  S  S   S   S  S  S S  S S S S  S  
--------------------------------------------|
--------------------------------------------|
-------------10h-12h-14-12-10-9--------7s-9-|
--0-0-0-0--0--------------------12-0-0------|


             |---3---|                       
  S S S E  S S   S   S S  S  S S  S  S S  S  
--------------------------------------------|
-----------------------9---------12-10-9----|
-------------9h-10h-12---12-10-9---------12-|
--0-0-0-0--0--------------------------------|


              |---3---|                        
  S S S E  S  S   S   S  S  S S  S S S  S   S  
----------------------------------------------|
----------------------------------------------|
-------------10h-12h-14-12-10-9---------------|
--8-8-8-8--8--------------------12-8-8-10s-12-|


   S  S  S  E   S  S  S  S  S  S S  S  S S  S  
----------------------------------------------|
----------------------------------------------|
------------------10----10s-9----9s-7----7s-9-|
--10-10-10-10--10----10-------10------10------|


              |---3---|                      
  S S S E  S  S   S   S  S  S S  S S S S  S  
--------------------------------------------|
--------------------------------------------|
-------------10h-12h-14-12-10-9--------7s-9-|
--0-0-0-0--0--------------------12-0-0------|


             |---3---|                       
  S S S E  S S   S   S S  S  S S  S  S S  S  
--------------------------------------------|
-----------------------9---------12-10-9----|
-------------9h-10h-12---12-10-9---------12-|
--0-0-0-0--0--------------------------------|


              |---3---|                        
  S S S E  S  S   S   S  S  S S  S S S  S   S  
----------------------------------------------|
----------------------------------------------|
-------------10h-12h-14-12-10-9---------------|
--8-8-8-8--8--------------------12-8-8-10s-12-|


   S  S  S  E   S  S  S  S  S  S S  S  S S  S  
----------------------------------------------|
----------------------------------------------|
------------------10----10s-9----9s-7----7s-9-|
--10-10-10-10--10----10-------10------10------|


  *Not sure about bars 20-22         doesn't play this live anyways... plays som
  S                          S S S S S                                          
--------------------------------------------------------------------------------
--------------------------------------------------------------------------------
--------------------------------------------------------------------------------
--0--------------------------0---0---0------------------------------------------


                  T        T        T           
                  |--3--|  |--3--|  |--3--|     
  S S S S S S E   S  S  S  S  S  S  S  S  S E   
-----------------------------------------------|
--------------------------------------------9--|
--------------5--10p-7p-5-10p-7p-5-10p-7p-5----|
--0-0---0---0----------------------------------|


                   T          T          T          T          
                   |---3---|  |---3---|  |---3---|  |---3---|  
  S S S S S S  E   S   S   S  S   S   S  S   S   S  S   S   S  
--------------------------------------------------------------|
--------------------------------------------------------------|
--------------10--15p-12p-10-15p-12p-10-15p-12p-10-15p-12p-10-|
--8-8---8---8-------------------------------------------------|


   S  S S  S S  S  S  S  S  S  S S  S  S S  S    H.           E  E   
----------------------------------------------|---------------------|
----------------------------------------------|---------------------|
------------------10----10s-9----9s-7----7s-9-|---------------3--3--|
--10-10---10---10----10-------10------10------|--0------------------|


  H        S S S S S S E     S S E  S S E  S S E  S   S  S  S  
--------------------------|-----------------------------------|
--------------------------|-----------------------------------|
--0-----------------------|----------------0-0-0--7h-10p-9----|
-----------3-3-2-2---2----|--0-0-0--3-3-3------------------10-|


                       |--3--|                                          
  S S E  S S E  S S E  S  S  S S S    S S E  S S E  S S E  S   S  S  S  
-----------------------------------|-----------------------------------|
---------------------------------4-|-----------------------------------|
---------3-3-3--0-0-0--5h-7p-5-3---|----------------0-0-0--7h-10p-9----|
--0-0-0----------------------------|--0-0-0--3-3-3------------------10-|


  S S S S  S S S  S S S S  S  S  S S S    S S S S S S S S S S S S S S S  S  
---------------------------------------|-----------------------------------|
----------10-9----------9-10-----------|------------------------------9-10-|
----8-7----------10-9--------10-12-----|--------------------------7-9------|
--0----------------------------------8-|--L-8-8-8-8-8-8-8-8-8-8-8----------|


   S  S  S  S  S  S  S  S  S  S  S  S  S  S  S  S  
--------------------------------------------------|
---L-10-10-10-10-10-10-10-10-10-10-10-10-10-10-10-|
--------------------------------------------------|
--------------------------------------------------|


                                                           |--3--|      
  S S E  S S E  S S E  S   S  S  S    S S E  S S E  S S E  S  S  S S S  
-----------------------------------|-----------------------------------|
-----------------------------------|---------------------------------4-|
----------------0-0-0--7h-10p-9----|---------3-3-3--0-0-0--5h-7p-5-3---|
--0-0-0--3-3-3------------------10-|--0-0-0----------------------------|


  S S E  S S E  S S E  S   S  S  S    S S S S  S S S  S S S S  S  S  S S S  
-----------------------------------|---------------------------------------|
-----------------------------------|----------10-9----------9-10-----------|
----------------0-0-0--7h-10p-9----|----8-7----------10-9--------10-12-----|
--0-0-0--3-3-3------------------10-|--0----------------------------------8-|


  S S S S S S S S S S S S S S S S    S S S S S S S S S S S S S S S S  
----------------------------------|----------------------------------|
----------------------------------|----------------------------------|
----------------------------------|----------------------------------|
--L-8-8-8-8-8-8-8-8-8-8-8-8-8-8-8-|--L-8-8-8-8-8-8-8-8-8-8-8-8-8-8-5-|


  S S S S S S S S S S S S S S S S    S S S S S S S S S S S S S S S S  
----------------------------------|----------------------------------|
----------------------------------|----------------------------------|
----------------------------------|----------------------------------|
--L-5-5-5-5-5-5-5-5-5-5-5-5-5-5-5-|--L-5-5-5-5-5-5-5-5-5-5-5-5-5-5-6-|


  S S S S S S S S  S  S  S S E.   S    S S S S S S S S S S S S S E.    
------------------------------------|---------------------------------|
--------------8-8-10-10-10-5-5\-----|--------------2-2-5-5-5----------|
------------------------------------|------------------------5-5-5\---|
--L-6-6-6-6-6---------------------3-|--L-3-3-3-3-3--------------------|


  S Q    S T S S S S E  S E  T    S S S S S S S S S S S S S S S S  
-------------------------------|----------------------------------|
-------------------------------|----------------------------------|
-------------------------------|----------------------------------|
--0------0---0-0---0----0------|--0-0-0-0-0-0-0-0-0-0-0-0-0-0-0-0-|


  S E  S  S E  S  S S S S S E  S    S S S S S S S S S S S S S S S S  
---------------------------------|----------------------------------|
-------6s-7----9\---3------------|----------------------------------|
--7------------------------------|----------------------------------|
------------------------0-0------|--0-0-0-0-0-0-0-0-0-0-0-0-0-0-0-0-|


  E  S S S  E  S S S E  S S S S    E  S S S  E  S S S S S S S S S  
--------------------------------|---------------------------------|
---------6s-7--9----------------|---------6s-7--9-----------------|
-------------------8------------|-------------------8-------------|
--0----0----------------0---0---|--0----0---------------0-0---0---|


  W                E  T T E  S S S  
-----------------------------------|
--9----------------L---------------|
-----------------------------------|
----------------------0-0------0---|


  S E  S S S T T E  S S S S E  S S S  S S Q     
-----------------------------------------------|
-------------------------------------10--------|
-----------------------------------------------|
--8------8---8-8------8---8------8------8-8----|


  S S S S S S S S S S S S S S S S S S S S S S S S  
--------------------------------------------------|
--------------------------------------------------|
--------------------------------------------------|
--0-0-0-0-0-0-0-0-0-0-0-0-0-0-0-0-0-0-0-0-0-0-0-0-|


  S S S S S S S S S S S S S S  S  S S S  S S S S S  S  
-------------------------------------------7-8-7-8-10-|
------------------------------------7-8-10------------|
--------------------------7-9-10-10-------------------|
--0-0-0-0-0-0-0-0-0-0-0-0-----------------------------|


  S S S E  S S S S S S  S S S S E  S  S  S S  S  S S  
-----------------------------------------------------|
-----------------------------------------------------|
--------7--9-------7-9-10-------7--9---------11-10-9-|
--0-0-0------0-0-0--------0-0-0------11-10-9---------|


  S S S E  S S S S S S  S S S  S  S S S  S S S S S  S    W.                
-------------------------------------------7-8-7-8-10-|-------------------|
------------------------------------7-8-10------------|-------------------|
--------7--9-------7-9-10-7-9-10-10-------------------|-------------------|
--0-0-0------0-0-0------------------------------------|--0----------------|


  W                E  S S S S E     S S S S Q    S E  S S Q    S S S S S E   
---------------------------------|------------------------------------------|
---------------------------------|------------------------------------------|
---------------------------------|------------------------------------------|
--L----------------L--0-0-0-0----|--0-0-0-0------0----0-0--------0-0-0-0----|


  S S S S Q    S E  S S Q    S S S S S S S  
-------------------------------------------|
-------------------------------------------|
-------------------------------------------|
--0-0-0-0------0----0-0--------0-0-0-0-0-0-|


  S S S S Q    S E  S S Q    S S S S S E   
------------------------------------------|
------------------------------------------|
------------------------------------------|
--0-0-0-0------0----0-0--------0-0-0-0----|


  S S S S Q    S E  S S Q    S S S S S S S  
-------------------------------------------|
-------------------------------------------|
-------------------------------------------|
--0-0-0-0------0----0-0--------0-0-0-0-0-0-|


  S S S S Q    S E  S S Q    S S S S S E   
------------------------------------------|
------------------------------------------|
------------------------------------------|
--0-0-0-0------0----0-0--------0-0-0-0----|


  S S S S Q    S E  S S Q    S S S S S S S    S S S S Q    S E  S  
-------------------------------------------|----------------------|
-------------------------------------------|----------------------|
-------------------------------------------|----------------------|
--0-0-0-0------0----0-0--------0-0-0-0-0-0-|--0-0-0-0------0----0-|


  S S S E  E.  S E  E.  S S  S  S S  S  S S  S S  
-------------------------------------------------|
--------------------------0h-2p-0----------------|
--------5--7----------------------3p-2p-0-5p-0---|
--0-0-0--------0-3--5---0----------------------3-|


  S S S E  E.  S E  E.  S S  S  S S  S  S E.   
----------------------------------------------|
--------------------------0h-2p-0---------1---|
--------5--7----------------------3p-2p-0-----|
--0-0-0--------0-3--5---0---------------------|


  S S S E  E.  S E  E.  S S  S  S S  S  S S  S S  
-------------------------------------------------|
--------------------------0h-2p-0----------------|
--------5--7----------------------3p-2p-0-5p-0---|
--0-0-0--------0-3--5---0----------------------3-|


  S S S E  E.  S E  E.  S S  S  S S  S  S E.   
----------------------------------------------|
--------------------------0h-2p-0---------1---|
--------5--7----------------------3p-2p-0-----|
--0-0-0--------0-3--5---0---------------------|


  S S S E  E.  S E  E.  S S  S  S S  S  S S  S S  
-------------------------------------------------|
--------------------------0h-2p-0----------------|
--------5--7----------------------3p-2p-0-5p-0---|
--0-0-0--------0-3--5---0----------------------3-|


  S S S E  E.  S E  E.  S S  S  S S  S  S E.   
----------------------------------------------|
--------------------------0h-2p-0---------1---|
--------5--7----------------------3p-2p-0-----|
--0-0-0--------0-3--5---0---------------------|


  S S S E  E.  S E  E.  S S  S  S S  S  S S  S S  
-------------------------------------------------|
--------------------------0h-2p-0----------------|
--------5--7----------------------3p-2p-0-5p-0---|
--0-0-0--------0-3--5---0----------------------3-|


  S S S E  E.  S E  E.  S S  S  S S  S  S    E  E  E  S E  E  E  S E   
------------------------------------------|---------------------------|
--------------------------0h-2p-0---------|-----8----------8----------|
--------5--7----------------------3p-2p-0-|--6-----6----6-----6----6--|
--0-0-0--------0-3--5---0-----------------|-----------6----------6----|


  E  E  S E  E  E  E  S S S    E  E  S S S E  E  S S S E  E   
----------------------------|--------------------------------|
--8-------------------------|-----------------------------8--|
-----6----6-----6-----6---6-|--6-----6---6-6-----6---6-6-----|
--------6----6-----6--------|-----6-----------6--------------|


  E  E  E  S E  E  E  S E     E  E  S E  E  S    S S E  E  S S S E  E  S S S  
---------------------------|------------------|------------------------------|
-----8----------8----------|--8---------------|------------------------------|
--6-----6----6-----6----6--|-----6----6-----6-|--6---6-----6---6-6-----6---6-|
-----------6----------6----|--------6----6----|---------6-----------6--------|


  E  E  E  S E.  E  E  E     E  E  S E  E  S E  E  E   
--------------------------|---------------------------|
-----------8--------------|--8----------8-------------|
--6-----6--------------6--|-----6----6-----6-6-----6--|
-----6-------0---L--0-----|--------6------------0-----|


  E  E  S E  E  S E  E  E     E  S S S E  E  S S S E  E   
---------------------------|-----------------------------|
--8----------8-------------|--------------------------8--|
-----6----6-----6-6-----6--|-----6---6-6-----6---6-6-----|
--------6------------0-----|--6-----------6--------------|


  E  S E  E  Q    E.     S S S S S S S S S S S S E  E     S S S S S S S S   
----------------------|--------------------------------|-------------------|
----------8-----------|--------------------------------|-------------------|
--6----6--------------|--6---6---6-6---6---6---7-9--7--|--6---6---6-6-6-6\-|
-----6-------0----L---|--------------------------------|-------------------|


  S S S S S S S S S S S S E  E     E.  E.  E.  E.  E   
--------------------------------|---------------------|
--------------------------------|--9---8---7---6---5--|
--6---6---6-6---6---6---7-9--7--|---------------------|
--------------------------------|---------------------|


  S S S S S S S S S S S S E  E     S S S S S S S S   
--------------------------------|-------------------|
--------------------------------|-------------------|
--6---6---6-6---6---6---7-9--7--|--6---6---6-6-6-6\-|
--------------------------------|-------------------|


  S S S S S S S S S S S S E  E     E.  E.  E.  E.  E.  E.  E   
--------------------------------|-----------------------------|
--------------------------------|--9---8---7---6---5---4---3--|
--6---6---6-6---6---6---7-9--7--|-----------------------------|
--------------------------------|-----------------------------|


  H        H           H        Q    Q       H        H         
--------------------|---------------------|--------------------|
--------------------|---------------------|--------------------|
-----------3--------|-----------3----5----|-----------3--------|
--0-----------------|--3------------------|--0-----------------|


  H        Q    Q       W                   E   H        Q    E    
---------------------|-------------------|-----------------------||
---------------------|-------------------|-----------------------||
-----------3----5----|--7----------------|--L\-------------------||
--3------------------|-------------------|-----------------------||



comments
We did not receive enough feedback on this tab! Please rate:
1 2 3 4 5
I want to post or [tab]
guest
You may want to rate the tab now too:
select rating
Please do not post tabs as comments. Select "correction" instead!