Oops, an error
Loading. Please wait.

No Stars Over Bethlehem Tab

ver1
ver1

Intro

Whole song

More versions @911Tabs.com
5,505 views 3 this week
7 commentsread comments
1 2 3 4 5
accurate
x 5
Autoscroll
+/-
esc
set tempo
stop
Contributor
Difficulty
advanced
WARNING: You are trying to view
                                    content from Ultimate-Guitar.com
                                    in an unauthorized application,
                                    which is prohibited.

                                    Please use an official Ultimate
                                    Guitar Tabs application for iPhone,
                                    iPad or Android to access legitimate
                                    chords, guitar, bass, and drum tabs
                                    from Ultimate-Guitar.com database.

                                    Type "ultimate guitar tabs" in Apple
                                    App Store's or Android Market's
                                    search to find the application.
Right Guitar

Eb Ab Db Gb Bb eb

All that’s here is 100% correct... 0:36-0:56 is actually the left guitar – other than
enjoy it it’s a great tune.  Feel free to email me at reverett30@hotmail.com if you have
questions.  I also have a few other PTH tabs that I’m working on that I’d be more than 
to share. Cheers!


0:14-0:36

|---------5-------------------4-7----------------------------15p12p7-14p11p7--|
|-----------6-8-5-6-3-5-3h5h6-------------------------------------------------|
|-----------------------------------------------------------------------------|
|---------------------------------------9h10----12----------------------------|
|-2-222-2-------------------------2-222--------------11--222------------------|
|-0-000-0-------------------------0-000------00----0-----000------------------|
    ...                             ...      ..    .     ...

|---------5-------------------4-7----------------------------15p12p7-14p11p7--|
|-----------6-8-5-6-3-5-3h5h6-------------------------------------------------|
|-----------------------------------------------------------------------------|
|---------------------------------------9h10----12----------------------------|
|-2-222-2-------------------------2-222--------------11--222------------------|
|-0-000-0-------------------------0-000------00----0-----000------------------|
    ...                             ...      ..    .     ...

|---------5-------------------4-7---------------------------------------------|
|-----------6-8-5-6-3-5-3h5h6-------------------------------------------------|
|-----------------------------------------------------------------------------|
|----------------------------------------9h10----12---------------------------|
|-2-222-2-------------------------2-2--2--------------11----------------------|
|-0-000-0-------------------------0-0--0------00----0----0-000-000------------|
    ...                                       ..    .    . ... ...

|--------------------7h11h14-7h12h15------------------------------------------|
|-----------------------------------------------------------------------------|
|-----------------------------------------------------------------------------|
|---9h10----12-------------------------9h10----12-----------------------------|
|-2--------------11------------------2--------------11-2-2-2------------------|
|-0------00----0----0----------------0------00----0----0-0-0------------------|
         ..    .    .                       ..    .    . . .

|-----------------------15p12p7-14p11p7---------------------------------------|
|-----------------------------------------------------------------------------|
|-----------------------------------------------------------------------------|
|---9h10----12----------------------------------------------------------------|
|-2--------------11---------------------2-2-22-2-2-22-------------------------|
|-0------00----0----0-------------------0-0-00-0-0-00-------------------------|
         ..    .    .


 0:36-0:53

|-----------------------------------------------------------------------------|
|-----------------------------------------------------------------------------|
|----------------4--------------------------------4-------7-5-4---------------|
|----------4h5h7---7-5-4--------------------4h5h7---7-5-4-------7-------------|
|-2-222-2----------------7-5-3-6---2-222-2------------------------------------|
|-0-000-0--------------------------0-000-0------------------------------------|
    ...                  . .         ...

|-----------------------------------------------------------------------------|
|-----------------------------------------------------------------------------|
|----------------7------------------------------------------------------------|
|-5-555-5—-4h5h7---7-5-4-----------7-777-7--5---5-4---4-3---2-4---------------|
|-3-333-3----------------7-5-3-6---5-555-5----7-----5-----3-----2-------------|
|-----------------------------------------------------------------------------|
    ...                  . .         ...      .     .     .     .


|-----------------------------------------------------------------------------|
|-----------------------------------------------------------------------------|
|----------------4--------------------------------4-------7-5-4---------------|
|----------4h5h7---7-5-4--------------------4h5h7---7-5-4-------7-------------|
|-2-222-2----------------7-5-3-6---2-222-2------------------------------------|
|-0-000-0--------------------------0-000-0------------------------------------|
    ...                  . .         ...


|-----------------------------------------------------------------------------|
|-----------------------------------------------------------------------------|
|----------------7------------------------------------------------------------|
|-5-555-5—-4h5h7---7-5-4-----------7-777-7--5---5-4---4-3---2-4---------------|
|-3-333-3----------------7-5-3-6---5-555-5----7-----5-----3-----2-------------|
|-----------------------------------------------------------------------------|
    ...                  . .         ...      .     .     .     .


0:53-1:04

|------8p5p0-------10p7p0-----------------------------------------------------|
|------------7p4p0--------8p5p0-8---------------------------------------------|
|-----------------------------------------------------------------------------|
|-----------------------------------------------------------------------------|
|-2222-----------------------------2222---------------------------------------|
|-0000-----------------------------0000---------------------------------------|
  ....                             ....

|------12p8p0-----------------------------------------------------------------|
|-------------8p5p0-----------------------------------------------------------|
|-5555--------------11p7p0----------------------------------------------------|
|-5555---------------------10p7p0---------------------------------------------|
|-3333----------------------------9p6p0---------------------------------------|
|-3333------------------------------------------------------------------------|
  ....

|-----------------------------------------------------------------------------|
|-----------------------------------------------------------------------------|
|-777-4---4---------------------9-9-6-----------------------------------------|
|-777---5---7-4-7-5---5-7-4--2--x-x-x-----------------------------------------|
|-555---------------7--------2--7-7-4--555-4-3--------------------------------|
|-555------------------------0---------333-2-1--------------------------------|
  ...                                  ... . .


1:04-1:38

|-----------------------------------------------------------------------------|
|-----------------------------------------------------------------------------|
|-----------------------------------------------------------------------------|
|---------------------------9-7---------------------------------4h5p4---4-----|
|-2-2-222-5-5-555-7-7-777-7-----8--2-2-222-10-10-101010-7-7-777-------7-------|
|-0-0-000-3-3-333-5-5-555----------0-0-000-8--8—-8-8-8--5-5-555---------------|
  . . ... . . ... . . ...          . . ... .  .  . . .  . . ...

|----------------------------------------------------10-12-7-8----------------|
|----------------------------------------------12-10--------------------------|
|------------------------------------------9-7--------------------------------|
|---------------------------9-7------7-5--------------------------------------|
|-2-2-222-5-5-555-7-7-777-7-----8--------5------------------------------------|
|-0-0-000-3-3-333-5-5-555----------0------------------------------------------|
  . . ... . . ... . . ...          .

|-----------------------------------------------------------------------------|
|-----------------------------------------------------------------------------|
|-5---------------------------------------------------------------------------|
|-5-x32-------------------------------9-7-------------------------------------|
|-3---------2-2-222-5-5-555-7-7-777-7-----8--2-2-222-10-10-101010-7-7-777-----|
|-----------0-0-000-3-3-333-5-5-555----------0-0-000-8--8---8-8-8-5-5-555-----|
            . . ... . . ... . . ...          . . ... .  .   . . . . . ...

|--------------------------------------------------------------10-12-7-8------|
|--------------------------------------------------------12-10----------------|
|----------------------------------------------------9-7----------------------|
|-4h5p4---4----------------------------9-7-----7-5----------------------------|
|-------7----2-2-222-5-5-555-7-7-777-7-----8-------5--------------------------|
|------------0-0-000-3-3-333-5-5-555----------0-------------------------------|
             . . ... . . ... . . ...          .


|-----------------------------------------------------------------------------|
|-----------------------------------------------------------------------------|
|-5------2------3-------------------------------------------------------------|
|-5-x32--2-x32--3-x16--5------------------------------------------------------|
|-3------0------1------5-x16--2-2-22-2-2--------------------------------------|
|----------------------3------0-0-00-0-0--------------------------------------|
                                . .. . .


1:38-1:49

|---------5-------------------4-7----------------------------15p12p7-14p11p7--|
|-----------6-8-5-6-3-5-3h5h6-------------------------------------------------|
|-----------------------------------------------------------------------------|
|---------------------------------------9h10----12----------------------------|
|-2-222-2-------------------------2-222--------------11--222------------------|
|-0-000-0-------------------------0-000------00----0-----000------------------|
    ...                             ...      ..    .     ...

|---------5-------------------4-7---------------------------------------------|
|-----------6-8-5-6-3-5-3h5h6-------------------------------------------------|
|-----------------------------------------------------------------------------|
|-----------------------------------9h10----12--------------------------------|
|-2-222-2-------------------------2--------------11---------------------------|
|-0-000-0-------------------------0------00----0----0-000-000-----------------|
    ...                                  ..    .    . ... ...

|-----------------------------------------------------------------------------|
|-----------------------------------------------------------------------------|
|-----------------------------------------------------------------------------|
|---9h10----12----------------------------------------------------------------|
|-2--------------11-----------------------------------------------------------|
|-0------00----0----0-0-0-----------------------------------------------------|
         ..    .    . . .


1:48-1:54

|-----------------------------------------------------------------------------|
|-----------------------------------------------------------------------------|
|-----------------------------------8-----------------------------------------|
|---------------------5-5-555-5-5-5-7-----------------------------------------|
|-2-2-222-2-2-2-222-2-3-3-333-3-3-3-6-----------------------------------------|
|-0-0-000-0-0-0-000-0---------------------------------------------------------|
  . . ... . . . ... . . . ... . . .


1:54-2:07

|-----------------------------------------------------------------------------|
|-----------------------------------------------------------------------------|
|-----------------------------------------------13-12-11----------------------|
|--------------------------------------13-12-11-------------------------------|
|-----10-9-12-----10-12-9-----10-9-12-----------------------------------------|
|-000---------000---------000-------------------------------------------------|
  ...         ...         ...
|-----------------------------------------------------------------------------|
|-------------------------------------------------7-8-9-----------------------|
|-------------------------------------------7-8-9-----------------------------|
|-----------------------------------9-10-11----------------x2-----------------|
|-----10-9-12-----10-12-9--10-11-12-------------------------------------------|
|-000---------000-------------------------------------------------------------|
  ...         ...


2:07-2:19

|-----------------------------------------------------------------------------|
|-----------------------------------------------------------------------------|
|-----------------------------------------------------------------------------|
|-2---------------------------------------------------------------------------|
|-2---------------------------------------------------------------------------|
|-0-----0000—-0000-0-00-0000-0000-0-00-000000---------------------------------|
   hold ....  .... . .. .... .... . .. ......


2:19-2:33

|-----------------------------------------------------------------------------|
|-----------------------------------------------------------------------------|
|-----------------------------------------------------------------------------|
|-----------------------------------------------------------------------------|
|-7s10---10s7---6s9---9s6---3s7---7s6---6s9---10s9—x4--2222-2-2---------------|
|------0------0-----0-----0-----0-----0-----0----------0000-0-0---------------|
       .      .     .     .     .     .     .          .... . .


2:33-2:56

|-----------------------------------------------------------------------------|
|-----------------------------------------------------------------------------|
|-----------------------------------------------------------------------------|
|-------2-------2-----------------------2-------2----------------x3-----------|
|-222-5-----------5-3-2-----5-----222-5-----------5-3-2-----6-----------------|
|-000-----0-3-5---------5-3---3-2-000-----0-3-5---------5-3-------------------|
  ...     .                       ...     .

|-----------------------------------------------------------------------------|
|-----------------------------------------------------------------------------|
|-----------------------------------------------------------8-----------------|
|-------2-------2-----------------------2-------2-----------x-----------------|
|-222-5-----------5-3-2-----5-----222-5-----------5-3-2-----6-----------------|
|-000-----0-3-5---------5-3---3-2-000-----0-3-5---------5-3-------------------|
  ...     .                       ...     .


2:56-3:20

I’m not totally sure about this section just play around with this riff and throw in an
octave when necessary

|-----------3-4-6-------------------------------------------------------------|
|---4---5---------------------------------------------------------------------|
|-3---3---3-------------------------------------------------------------------|
|-----------------------------------------------------------------------------|
|-----------------------------------------------------------------------------|
|-----------------------------------------------------------------------------|


3:20-3:35

|-----------------------------------------------------------------------------|
|-----------------------------------------------------------------------------|
|-12-12-1212-12-12-13-13---14-13-12-12-1212----12-12-1212-12-12-13-13---14-13-|
|--x--x--x-x--x--x--x--x-s--x--x--x--x--x-x-----x--x--x-x--x—-x--x--x—s--x—-x-|
|-10-10-1010-10-10-11-11---12-11-10-10-1010----10-10-1010-10-10-11-11---12-11-|
|-------------------------------------------00--------------------------------|

|-----------------------------------------------------------------------------|
|-15-18-15-14-17-14-13-16-13-12-15-12-11-14-----------------------------------|
|-----------------------------------------------------------------------------|
|-----------------------------------------------------------------------------|
|-----------------------------------------------------------------------------|
|-----------------------------------------------------------------------------|

|-----------------------------------------------------------------------------|
|-----------------------------------------------------------------------------|
|-12-12-1212-12-12-13-13---14-13-12-12-1212----12-12-1212-12-12-13-13---14-13-|
|--x--x--x-x--x--x--x--x-s--x--x--x--x--x-x-----x--x--x-x--x—-x--x--x—s--x—-x-|
|-10-10-1010-10-10-11-11---12-11-10-10-1010----10-10-1010-10-10-11-11---12-11-|
|-------------------------------------------00--------------------------------|

|-----------------------------------------------------------------------------|
|-15-18-15-14-17-14-13-16-13-12-15-12-11-14-10-13-10-9-12---------------------|
|-----------------------------------------------------------------------------|
|-----------------------------------------------------------------------------|
|-----------------------------------------------------------------------------|
|-----------------------------------------------------------------------------|


3:35-3:49

|-----------------------------------------------------------------------------|
|---------------------------12-13-15-13-12------------------------------------|
|---5---7-8---5----11-12-14----------------14-11-12---------------------------|
|-2-5-5-7-9-2-5-5-------------------------------------------------------------|
|-2-3-5-5-6-2-3-5-------------------------------------------------------------|
|-0---3-----0---3-------------------------------------------------------------|
comments
print report bad tab
7 comments total. Showing first comments.
0 reply
Protestfan wrote on September 22 2006, 10:21 pm

Looks Good Dude Keep it up, hope ur tabbing out she who mars the skin of the gods or plateful of our dead

-rock on

0 reply
spencer Cr wrote on March 13 2007, 09:28 pm

dude you gotta tab teh left guitar!

0 reply
confinedforever wrote on June 4 2007, 05:06 pm

wrong tuning but it sounds good 4*

I want to post or [tab]
guest
You may want to rate the tab now too:
select rating
Please do not post tabs as comments. Select "correction" instead!