Oops, an error
Loading. Please wait.

Palms Read Bass Tab

ver1
ver1

Whole song

More versions @911Tabs.com
8,895 views 9 this week
no commentswrite comment
1 2 3 4 5
excellent!
x 4
Autoscroll
+/-
esc
set tempo
stop
WARNING: You are trying to view
                                    content from Ultimate-Guitar.com
                                    in an unauthorized application,
                                    which is prohibited.

                                    Please use an official Ultimate
                                    Guitar Tabs application for iPhone,
                                    iPad or Android to access legitimate
                                    chords, guitar, bass, and drum tabs
                                    from Ultimate-Guitar.com database.

                                    Type "ultimate guitar tabs" in Apple
                                    App Store's or Android Market's
                                    search to find the application.
Arif Mirabdolbaghi

For everyone without Guitar Pro. Tabbed by Tom Delonge II.

      S S S S S S H        E     S S S S S S H        E   
F#||--------------------------|--------------------------|
C#||--------------------------|--------------------------|
G#||--------------------------|--------------------------|
D#||--0-0-0-0-0-0-------------|--0-0-0-0-0-0-------------|
A#||--------------------------|--------------------------|


  S S S S S S H        E     S S Q    S S E  S S E     S S Q    S S E  S S E   
--------------------------|-------------------------|-------------------------|
--------------------------|-------------------------|-------------------------|
--------------------------|------------------5-8-7--|-------------------------|
--0-0-0-0-0-0-------------|--4-7-6----4-7-6---------|--4-7-6----4-7-6--4-7-6--|
--------------------------|-------------------------|-------------------------|


  S S S S S S H        E     S S S S S S H        E   
--------------------------|--------------------------|
--------------------------|--------------------------|
--------------------------|--------------------------|
--0-0-0-0-0-0-------------|--0-0-0-0-0-0-------------|
--------------------------|--------------------------|


  S S S S S S H        E     S S Q    S S E  S S E   
--------------------------|-------------------------|
--------------------------|-------------------------|
--------------------------|------------------5-8-7--|
--0-0-0-0-0-0-------------|--4-7-6----4-7-6---------|
--------------------------|-------------------------|


                                        T        T       T      T  
  S S Q    S S E  S S E  Q    E     S   S S S S  S  S S  S S S  S  
---------------------------------|----------9------11------8------|
---------------------------------|--------9---9-------9------9----|
---------------------------------|--7h-11-------11------11-----11-|
--4-7-6----4-7-6--4-7-6----------|--------------------------------|
---------------------------------|--------------------------------|


     T       T    T       T        T        T       T      T  
  S  S S S S S S  S S S S S    S   S S S S  S  S S  S S S  S  
---------8------------6-----|----------9------11------8------|
-------9---9--------7---7---|--------9---9-------9------9----|
--6h-9-------9-4h-7-------7-|--7h-11-------11------11-----11-|
----------------------------|--------------------------------|
----------------------------|--------------------------------|


     T       T    T       T       T       T     T     T  
  S  S S S S S S  S S S S S    S  S S S S S S S S S S S  
---------8------------6-----|---------6-----9-----4-----|
-------9---9--------7---7---|-------6---6-----6-----6---|
--6h-9-------9-4h-7-------7-|--4h-7-------7-----7-----7-|
----------------------------|---------------------------|
----------------------------|---------------------------|


     T       T    T       T       T       T     T     T  
  S  S S S S S S  S S S S S    S  S S S S S S S S S S S  
---------8------------6-----|---------6-----9-----4-----|
-------9---9--------7---7---|-------6---6-----6-----6---|
--6h-9-------9-4h-7-------7-|--4h-7-------7-----7-----7-|
----------------------------|---------------------------|
----------------------------|---------------------------|


       T           T    T       T                               
   S   S  S  S  S  S S  S S S S S    S Q    S S S Q    S S S S  
------------13--------------8-----|----------------------------|
---------14----14---------9---9---|----------------------------|
--11h-14----------14-6h-9-------9-|----------------------------|
----------------------------------|--0--------0-0------0-0-0---|
----------------------------------|----------------------------|


  E  S S S S S S S S S S E  E     Q.     S S Q    S S S S  
-------------------------------|--------------------------|
-------------------------------|--------------------------|
-----------------3-3-3-3-3--3--|--------------------------|
-----0---0-0---0---------------|--0------0-0------0-0-0---|
-------------------------------|--------------------------|


  E  E   E  E   E  E   Q       S Q    S S S Q    S S S S  
----------------------------|----------------------------|
----------------------------|----------------------------|
---------------10-----------|----------------------------|
-----7--10--7------7--10----|--0--------0-0------0-0-0---|
----------------------------|----------------------------|


  E  S S S S S S S S S S E  E     Q.     S S Q    S S S S  
-------------------------------|--------------------------|
-------------------------------|--------------------------|
-----------------3-3-3-3-3--3--|--------------------------|
-----0---0-0---0---------------|--0------0-0------0-0-0---|
-------------------------------|--------------------------|


  E  E   E  E   E  E   Q       E  E  S E  S E  E  S E  S  
----------------------------|----------------------------|
----------------------------|----------------------------|
---------------10-----------|--5--5--5------5--5--5------|
-----7--10--7------7--10----|----------------------------|
----------------------------|----------------------------|


  E  E  E  E  E  E  E  E     E  E  E  S E  S E  E  S S  
--------------------------|----------------------------|
--------------------------|----------------------------|
--------------------------|-----5--5--5------5--5--5---|
-----5--5--5--6--6--8--8--|----------------------------|
--------------------------|----------------------------|


  E  E  E  E  E  E  S S S Q    S    H        H           H        E  E  E  E   
---------------------------------|--------------------|-----------------------|
---------------------------------|--------------------|-----------------------|
---------------------------------|--------------------|-----------------------|
-----5--5--5--6--6--8---8--------|-----------4--------|-----------4-----------|
---------------------------------|--3-----------------|--3--------------2-----|


  H        H           H        E  E  E  E     S Q    S S S Q    S S S S  
--------------------|-----------------------|----------------------------|
--------------------|-----------------------|----------------------------|
--------------------|-----------------------|----------------------------|
-----------4--------|-----------4-----------|--0--------0-0------0-0-0---|
--3-----------------|--3--------------2-----|----------------------------|


  E  S S S S S S S S S S E  E     Q.     S S Q    S S S S  
-------------------------------|--------------------------|
-------------------------------|--------------------------|
-----------------3-3-3-3-3--3--|--------------------------|
-----0---0-0---0---------------|--0------0-0------0-0-0---|
-------------------------------|--------------------------|


  E  E   E  E   E  E   Q       S Q    S S S Q    S S S S  
----------------------------|----------------------------|
----------------------------|----------------------------|
---------------10-----------|----------------------------|
-----7--10--7------7--10----|--0--------0-0------0-0-0---|
----------------------------|----------------------------|


  E  S S S S S S S S S S E  E     Q.     S S Q    S S S S  
-------------------------------|--------------------------|
-------------------------------|--------------------------|
-----------------3-3-3-3-3--3--|--------------------------|
-----0---0-0---0---------------|--0------0-0------0-0-0---|
-------------------------------|--------------------------|


  E  E   E  E   E  E  Q       Q     H        Q       S S S S S S S S S S S S  
---------------------------|----------------------|--------------------------|
---------------------------|----------------------|--------------------------|
---------------10----------|----------------------|--------------------------|
-----7--10--7------7--7----|--L\------------------|--5-5-5-5-5-5-5-5-5-5-5-5-|
---------------------------|----------------------|--------------------------|


  S S S S S S S  S S  S S  S    S S S S S S S S S S S S  
-----------------------------|--------------------------|
------------------------4h-5-|--------------------------|
-------------------3h-5------|--------------------------|
--5-5-5-5-5-5-3h-5-----------|--5-5-5-5-5-5-5-5-5-5-5-5-|
-----------------------------|--------------------------|


  S S S S S S S  S S  S S  S    S S S S S S S S S S S S  
-----------------------------|--------------------------|
------------------------4h-5-|--------------------------|
-------------------3h-5------|--------------------------|
--5-5-5-5-5-5-3h-5-----------|--5-5-5-5-5-5-5-5-5-5-5-5-|
-----------------------------|--------------------------|


  S S S S S S S  S S  S S  S    S S S S S S S S S S S S  
-----------------------------|--------------------------|
------------------------4h-5-|--------------------------|
-------------------3h-5------|--------------------------|
--5-5-5-5-5-5-3h-5-----------|--5-5-5-5-5-5-5-5-5-5-5-5-|
-----------------------------|--------------------------|


                                    T        T       T      T  
  S S S S S S S  S S  S S  S    S   S S S S  S  S S  S S S  S  
-----------------------------|----------9------11------8------|
------------------------4h-5-|--------9---9-------9------9----|
-------------------3h-5------|--7h-11-------11------11-----11-|
--5-5-5-5-5-5-3h-5-----------|--------------------------------|
-----------------------------|--------------------------------|


     T       T    T       T        T        T       T      T  
  S  S S S S S S  S S S S S    S   S S S S  S  S S  S S S  S  
---------8------------6-----|----------9------11------8------|
-------9---9--------7---7---|--------9---9-------9------9----|
--6h-9-------9-4h-7-------7-|--7h-11-------11------11-----11-|
----------------------------|--------------------------------|
----------------------------|--------------------------------|


     T       T    T       T       T       T     T     T  
  S  S S S S S S  S S S S S    S  S S S S S S S S S S S  
---------8------------6-----|---------6-----9-----4-----|
-------9---9--------7---7---|-------6---6-----6-----6---|
--6h-9-------9-4h-7-------7-|--4h-7-------7-----7-----7-|
----------------------------|---------------------------|
----------------------------|---------------------------|


     T       T    T       T       T       T     T     T  
  S  S S S S S S  S S S S S    S  S S S S S S S S S S S  
---------8------------6-----|---------6-----9-----4-----|
-------9---9--------7---7---|-------6---6-----6-----6---|
--6h-9-------9-4h-7-------7-|--4h-7-------7-----7-----7-|
----------------------------|---------------------------|
----------------------------|---------------------------|


       T           T    T       T                                            
   S   S  S  S  S  S S  S S S S S    H        H           H        H         
------------13--------------8-----|--------------------|--------------------|
---------14----14---------9---9---|--------------------|--------------------|
--11h-14----------14-6h-9-------9-|--4--------3--------|--2--------1--------|
----------------------------------|--------------------|--------------------|
----------------------------------|--------------------|--------------------|


  H        H           H        H           S S S S S S S S S E  S  
--------------------|--------------------|-------------------------|
--------------------|--------------------|-------------------------|
--------------------|--------------------|-------------------------|
--5--------4--------|--1--------3--------|--3-2-0-2---2-1-0-1------|
--------------------|--------------------|-------------------------|


  S S S S S S S S S Q    E  S    S S S S S S S S S S S S S S S S S S S S  
------------------------------|------------------------------------------|
------------------------------|------------------------------------------|
------------------------------|------------------------------------------|
--3-2-0-2---2-1-0-1-----------|--3-2-0-2---2-1-0-1---3-2-0-2---2-1-2-1---|
------------------------------|------------------------------------------|


  H           S S S S S S S S S S S S S S Q    E   
-----------|--------------------------------------|
-----------|--------------------------------------|
-----------|--------------------------------------|
-----------|--3-2-0-2---2-1-0-3-2-3-2-3-2---------|
-----------|--------------------------------------|


  S S S S S S S S S E  S S S S S S S S S  
-----------------------------------------|
-----------------------------------------|
-----------------------------------------|
--3-2-0-2---2-1-0-1------3-2-0-2---2-1-0-|
-----------------------------------------|


  S S S S S S S S S S S S S S S S S S S S  
------------------------------------------|
------------------------------------------|
--3-3-3-2-2-2-1-1-0-0-3-3-3-2-2-2-1-1-0-0-|
------------------------------------------|
------------------------------------------|


  S S S S S S S S S S S S S S S S S S S S    E.  E.  Q    Q    E   
------------------------------------------|-----------------------|
------------------------------------------|-----------------------|
--3-3-3-2-2-2-1-1-0-0-3-3-3-2-2-2-1-1-0-0-|--3---2---1----2----1--|
------------------------------------------|-----------------------|
------------------------------------------|-----------------------|


  E.  E.  Q    Q    E     E.  E.  Q    Q    E     E.  E.  Q    Q    E   
-----------------------|-----------------------|-----------------------|
-----------------------|-----------------------|-----------------------|
--3---2---1----2----1--|--3---2---1----2----1--|--3---2---1----2----1--|
-----------------------|-----------------------|-----------------------|
-----------------------|-----------------------|-----------------------|


  S S S S S S S S  H            H        S  S Q.      
-----------------------------|-----------------------|
-----------------------------|-----------------------|
-----------------------------|-----------------------|
--0-0-0-0-0-0-0-0-12\--------|--0--------5h-7-0------|
-----------------------------|-----------------------|


  S S S S S S S S  H            H         H            S S S S S S H        E   
-----------------------------|----------------------|--------------------------|
-----------------------------|----------------------|--------------------------|
-----------------------------|----------------------|--------------------------|
--0-0-0-0-0-0-0-0-12\--------|--0--------12\--------|--0-0-0-0-0-0-------------|
-----------------------------|----------------------|--------------------------|


  S S S S S S H        E     S S S S S S H        E     S S Q    S S E  S S E   
--------------------------|--------------------------|-------------------------|
--------------------------|--------------------------|-------------------------|
--------------------------|--------------------------|------------------5-8-7--|
--0-0-0-0-0-0-------------|--0-0-0-0-0-0-------------|--4-7-6----4-7-6---------|
--------------------------|--------------------------|-------------------------|


  S S Q    S S E  S S E     S S Q    S S E  S S    S S Q    S S E  S S E   
-------------------------|----------------------|-------------------------|
-------------------------|----------------------|-------------------------|
-------------------------|------------------5-8-|------------------5-8-7--|
--4-7-6----4-7-6--4-7-6--|--4-7-6----4-7-6------|--4-7-6----4-7-6---------|
-------------------------|----------------------|-------------------------|


  S S Q    S S E  S S    Q.     Q.        Q    Q    Q    Q     
----------------------|----------------|----------------------|
----------------------|----------------|----------------------|
----------------------|--5-------------|------------1---------|
--4-7-6----4-7-6--4-7-|---------3------|--1----3---------3----|
----------------------|----------------|----------------------|


  Q    E.  E.  E.  E.     S  S S  S S  S S  S S  S S  S S  S S  S  
-----------------------|-------5h-7------5h-7------5h-7------5s-7-|
-----------------------|--5h-7------5h-7------5h-7------5h-7------|
--3----5-----------6---|------------------------------------------|
-----------3---5-------|------------------------------------------|
-----------------------|------------------------------------------|


  S S E  S S  E  S S  E  S S  E     E.  E.  E.  E.     Q.     Q.      
------7------10------12------14--|------------------|----------------|
---------------------------------|------------------|----------------|
---------------------------------|--5-----------6---|--5-------------|
--x-x----x-x-----x-x-----x-x-----|------3---5-------|---------3------|
---------------------------------|------------------|----------------|


                                  T        T       T      T  
  Q    Q    Q    Q    Q       S   S S S S  S  S S  S S S  S  
---------------------------|----------9------11------8------|
---------------------------|--------9---9-------9------9----|
------------1--------------|--7h-11-------11------11-----11-|
--1----3---------3----1----|--------------------------------|
---------------------------|--------------------------------|


     T       T    T       T        T        T       T      T  
  S  S S S S S S  S S S S S    S   S S S S  S  S S  S S S  S  
---------8------------6-----|----------9------11------8------|
-------9---9--------7---7---|--------9---9-------9------9----|
--6h-9-------9-4h-7-------7-|--7h-11-------11------11-----11-|
----------------------------|--------------------------------|
----------------------------|--------------------------------|


     T       T    T       T       T       T     T     T  
  S  S S S S S S  S S S S S    S  S S S S S S S S S S S  
---------8------------6-----|---------6-----9-----4-----|
-------9---9--------7---7---|-------6---6-----6-----6---|
--6h-9-------9-4h-7-------7-|--4h-7-------7-----7-----7-|
----------------------------|---------------------------|
----------------------------|---------------------------|


     T       T    T       T       T       T     T     T  
  S  S S S S S S  S S S S S    S  S S S S S S S S S S S  
---------8------------6-----|---------6-----9-----4-----|
-------9---9--------7---7---|-------6---6-----6-----6---|
--6h-9-------9-4h-7-------7-|--4h-7-------7-----7-----7-|
----------------------------|---------------------------|
----------------------------|---------------------------|


       T           T    T       T                             
   S   S  S  S  S  S S  S S S S S    S S S S S S S S S S S S  
------------13--------------8-----|--------------------------|
---------14----14---------9---9---|--------------------------|
--11h-14----------14-6h-9-------9-|--------------------------|
----------------------------------|--8-8-8-8-8-8-8-8-8-8-8-8-|
----------------------------------|--------------------------|


  S S S S S S S S S S S S    S S S S S S S S S S S S  
--------------------------|--------------------------|
--------------------------|--------------------------|
--------------------------|--------------------------|
--8-8-8-8-8-8-8-8-8-8-8-8-|--8-8-8-8-8-8-8-8-8-8-8-8-|
--------------------------|--------------------------|


  S S S S S S S S S S S S    S S S S S S S S S S S S  
--------------------------|--------------------------|
--------------------------|--------------------------|
--------------------------|--------------------------|
--8-8-8-8-8-8-7-7-7-7-7-7-|--5-5-5-5-5-5-5-5-5-5-5-5-|
--------------------------|--------------------------|


  S S S S S S S S S S S S    S S S S S S S S S S S S  
--------------------------|--------------------------|
--------------------------|--------------------------|
--------------------------|--5-5-5-5-5-5-5-5-5-5-5-5-|
--1-1-1-1-1-1-1-1-1-1-1-1-|--------------------------|
--------------------------|--------------------------|


  S S S S S S S S S S S S    S S S S S S S S S S S S  
--------------------------|--------------------------|
--------------------------|--------------------------|
--------------------------|--------------------------|
--1-1-1-1-1-1-1-1-1-1-1-1-|--8-8-8-8-8-8-8-8-8-8-8-8-|
--------------------------|--------------------------|


  S S S S S S S S S S S S    S S S S S S S S S S S S  
--------------------------|--------------------------|
--------------------------|--------------------------|
--------------------------|--------------------------|
--8-8-8-8-8-8-8-8-8-8-8-8-|--8-8-8-8-8-8-8-8-8-8-8-8-|
--------------------------|--------------------------|


  S S S S S S S S S S S S    S S S S S S S S S S S S  
--------------------------|--------------------------|
--------------------------|--------------------------|
--------------------------|--------------------------|
--8-8-8-8-8-8-7-7-7-7-7-7-|--5-5-5-5-5-5-5-5-5-5-5-5-|
--------------------------|--------------------------|


  S S S S S S S S S S S S    S S S S S S S S S S S S  
--------------------------|--------------------------|
--------------------------|--------------------------|
--------------------------|--5-5-5-5-5-5-5-5-5-5-5-5-|
--1-1-1-1-1-1-1-1-1-1-1-1-|--------------------------|
--------------------------|--------------------------|


  S S S S S S S S S S S S     H.              H.              H.            
--------------------------|----------------|---------------|---------------|
--------------------------|----------------|---------------|---------------|
--------------------------|--10------------|--L------------|--L------------|
--1-1-1-1-1-1-1-1-1-1-1-1-|---8------------|--L------------|--L------------|
--------------------------|----------------|---------------|---------------|


  H.              H        Q       H        Q       H        Q     
---------------|----------------|----------------|----------------|
---------------|----------------|----------------|----------------|
--L------------|----------------|----------------|----------------|
--L------------|----------------|----------------|----------------|
---------------|----------------|----------------|----------------|


  H        Q       H        Q       H        Q       H        Q     
----------------|----------------|----------------|----------------|
----------------|----------------|----------------|----------------|
----------------|----------------|----------------|----------------|
----------------|----------------|----------------|----------------|
----------------|----------------|----------------|----------------|


  H        Q       H        Q       H        Q       H        Q     
----------------|----------------|----------------|----------------|
----------------|----------------|----------------|----------------|
----------------|----------------|----------------|----------------|
----------------|----------------|----------------|----------------|
----------------|----------------|----------------|----------------|


  H        Q       H        Q       H        Q       H        Q     
----------------|----------------|----------------|----------------|
----------------|----------------|----------------|----------------|
----------------|----------------|----------------|----------------|
----------------|----------------|----------------|----------------|
----------------|----------------|----------------|----------------|


  H        Q       H        Q       H        Q       H        Q     
----------------|----------------|----------------|----------------|
----------------|----------------|----------------|----------------|
----------------|----------------|----------------|----------------|
----------------|----------------|----------------|----------------|
----------------|----------------|----------------|----------------|


  H        Q       H        Q       H        Q       H        Q     
----------------|----------------|----------------|----------------|
----------------|----------------|----------------|----------------|
----------------|----------------|----------------|----------------|
----------------|----------------|----------------|----------------|
----------------|----------------|----------------|----------------|


  H        Q       H        Q       H        Q       H        Q     
----------------|----------------|----------------|----------------|
----------------|----------------|----------------|----------------|
----------------|----------------|----------------|----------------|
----------------|----------------|----------------|----------------|
----------------|----------------|----------------|----------------|


  H        Q       H        Q       H        Q       H        Q     
----------------|----------------|----------------|----------------|
----------------|----------------|----------------|----------------|
----------------|----------------|----------------|----------------|
----------------|----------------|----------------|----------------|
----------------|----------------|----------------|----------------|


  H        Q       E  E  E  E  E  E  E  E     E  E  E  E  E  E  E  E   
----------------|--------------------------|--------------------------|
----------------|--------------------------|--------------------------|
----------------|--------------------------|--------------------------|
----------------|--0-----0--0-----0-----0--|--0-----0-----0--0--0-----|
----------------|--------------------------|--------------------------|


  E  E  E  E  E  E  E  E     E  E  E  E  E  E  E  E   
--------------------------|--------------------------|
--------------------------|--------------------------|
--------------------------|--------------------------|
--0-----0--0-----0-----0--|--0-----0-----0--0--0-----|
--------------------------|--------------------------|


  E  E  E  E  E  E  E  E     E  E  E  E  E  E  E  E   
--------------------------|--------------------------|
--------------------------|--------------------------|
--------------------------|--------------------------|
--0-----0--0-----0-----0--|--0-----0-----0--0--0-----|
--------------------------|--------------------------|


  E  E  E  E  E  E  E  E     E  E  E  E  E  E  E  E   
--------------------------|--------------------------|
--------------------------|--------------------------|
--------------------------|--------------------------|
--0-----0--0-----0-----0--|--0-----0-----0--0--0-----|
--------------------------|--------------------------|


  E  E  E  E  E  E  E  E     E  E  E  E  E  E  E  E   
--------------------------|--------------------------|
--------------------------|--------------------------|
--------------------------|--------------------------|
--7-----7--7-----7-----7--|--7-----7-----7--7--7-----|
--------------------------|--------------------------|


  E  E  E  E  E  E  E  E     E  E  E  E  E  E  E  E     W                 
--------------------------|--------------------------|-------------------|
--------------------------|--------------------------|-------------------|
--------------------------|--------------------------|-------------------|
--7-----7--7-----7-----7--|--7-----7-----7--7--7-----|--0----------------|
--------------------------|--------------------------|-------------------|


  W                   W                   H.           S S E   
-------------------|-------------------|----------------------|
-------------------|-------------------|----------------------|
-------------------|-------------------|----------------------|
--L----------------|--L----------------|--L------------0-0----|
-------------------|-------------------|----------------------|


  S S S S S S S E  S S S S S S S    S S S S S S S E  S S S S S S S  
---------------------------------|---------------------------------|
---------------------------------|---------------------------------|
---------------------------------|---------------------------------|
--3-5-3-0-5-6-0-7--0-0-0-0-0-0-0-|--3-5-3-0-5-6-0-7--0-0-0-0-0-0-0-|
---------------------------------|---------------------------------|


  S S S S S S S S S S S S S S S S    S S S S S S S E.  S S S S S S  
----------------------------------|--------------------------------|
----------------------------------|--------------------------------|
----------------------------------|--------------------------------|
--3-5-3-0-5-6-0-7-0-5-0-0-5-6-7-7-|--0-5-0-0-5-6-7-7---0-0-0-0-0-0-|
----------------------------------|--------------------------------|


   S  S  S S  S  S H        E      S  S  S S  S  S S  S S  S  S S  S  S E   
-------------------------------|-------------------------------------------|
-------------------------------|-------------------------------------------|
--13-12-10-0-10-12-------------|--13-12-10-0-10-12-0-13-0-12-10-0-10-12----|
-------------------------------|----------------------------------------9--|
-------------------------------|-------------------------------------------|


   S  S  S S  S  S S  S S  S  S S  S  S E   
-------------------------------------------|
-------------------------------------------|
--13-12-10-0-10-12-0-13-0-12-10-0-10-12----|
----------------------------------------9--|
-------------------------------------------|


   S  S  S S  S  S S  S S  S  S S  S  S E      S  S  S S  S  S H        E   
-------------------------------------------|-------------------------------|
-------------------------------------------|-------------------------------|
--13-12-10-0-10-12-0-13-0-12-10-0-10-12----|--13-12-10-0-10-12-------------|
----------------------------------------9--|-------------------------------|
-------------------------------------------|-------------------------------|


  E  E  E  E  E  E  E  E     E  E  E  E  E  E  E  E   
--------------------------|--------------------------|
--------------------------|--------------------------|
--------------------------|--------------------------|
--0--0--0--0--0--0--0--0--|--0--0--0--0--0--0--0--0--|
--------------------------|--------------------------|


   S  S  S S  S  S S  S S  S  S S  S  S E   
-------------------------------------------|
-------------------------------------------|
--13-12-10-0-10-12-0-13-0-12-10-0-10-12----|
----------------------------------------9--|
-------------------------------------------|


   S  S  S S  S  S  S  S  E   E   E   E     E  E  E  E  E  E  E  E   
-----------------------------------------|--------------------------|
-----------------------------------------|--------------------------|
--13-12-10-0-10-12-13-12-13--10--12--10--|--------------------------|
-----------------------------------------|--0--0--0--0--0--0--0--0--|
-----------------------------------------|--------------------------|


  E  E  E  E  E  E  E  E     E  E  E  E  E  E  E  E   
--------------------------|--------------------------|
--------------------------|--------------------------|
--------------------------|--------------------------|
--0--0--0--0--0--0--0--0--|--3--3--3--3--3--3--3--2--|
--------------------------|--------------------------|


  E  E  E  E  E  E  E  E     E  E  E  E  E  E  E  E   
--------------------------|--------------------------|
--------------------------|--------------------------|
--------------------------|--------------------------|
--5--5--5--5--5--5--5--2--|--3--3--3--3--3--3--3--2--|
--------------------------|--------------------------|


  E  E  E  E  E  E  E  E     E  E  E  E  E  E  E  E   
--------------------------|--------------------------|
--------------------------|--------------------------|
--------------------------|--------------------------|
--5--5--5--5--5--5--5--2--|--5-----0-----5-----0-----|
--------------------------|--------------------------|


  E  E  E  E  E  E  E  E     E  E  E  E  E  E  E  E   
--------------------------|--------------------------|
--------------------------|--------------------------|
--------------------2-----|--3-----------3-----------|
--5-----0-----5-----------|--------3-----------3-----|
--------------------------|--------------------------|


  E  E  E  E  E  E  E  E     E  E  E  E     E.  E.  Q    E.   E.   
--------------------------|--------------|------------------------|
--------------------------|--------------|------------------------|
--3-----------3-----------|--------------|---------------8---10---|
--------3-----------3-----|--3--3--0-----|--3---7---9-------------|
--------------------------|--------------|------------------------|


  E.   E.   E  E  E  E     E.  E.  Q    E.   E.  E   E   
-----------10-----------|-------------------------------|
--9---11----------------|------------------------9--11--|
------------------------|---------------8---10----------|
---------------3--3--0--|--3---7---9--------------------|
------------------------|-------------------------------|


  E  E  E  E  E  E  E  E     E  E  E  E     E.  E.  Q    E.   E.   
--------------------------|--------------|------------------------|
--------------------------|--------------|------------------------|
--------------------------|--------------|---------------8---10---|
--3--3--0--1--3--3--0--4--|--3--3--0-----|--3---7---9-------------|
--------------------------|--------------|------------------------|


  E.   E.   E  E  E  E     E.  E.  Q    E.   E.  E   E   
-----------10-----------|-------------------------------|
--9---11----------------|------------------------9--11--|
------------------------|---------------8---10----------|
---------------3--3--0--|--3---7---9--------------------|
------------------------|-------------------------------|


  E  E  E  E  E  E  E  E     E  E  H.              E  E  E  Q    Q.      
--------------------------|---------------------|-----------------------|
--------------------------|---------------------|-----------------------|
--------------------------|---------------------|-----------------------|
--3--3--0--1--3--3--0--4--|--3--3--0------------|--3--3--3--0----1------|
--------------------------|---------------------|-----------------------|


  E  E  H.              E  E  E  E  E  E  E  E    
---------------------|--------------------------||
---------------------|--------------------------||
---------------------|--------------------------||
--3--3--0------------|--3--3--0--1--3--3--0--4--||
---------------------|--------------------------||




Duration Legend
---------------
W - whole
H - half
Q - quarter
E - 8th
S - 16th
T - 32nd
X - 64th
. - note dotted
|-n-|  - n-tuplets


Tablature Legend
----------------
L - tied note
x - dead note
g - grace note
(n) - ghost note
> - accentuded note
NH - natural harmonic
AH - artificial harmonic
TH - tapped harmonic
SH - semi harmonic
PH - pitch harmonic
h - hammer on
p - pull off
b - bend
br - bendRelease
pb - preBend
pbr - preBendRelease
brb - bendReleaseBend
\n/ - tremolo bar dip
\n - tremolo bar dive
-/n - tremolo bar Release up
/n\ - tremolo bar inverted dip
/n - tremolo bar return
-\n - tremolo bar Release down
S - shift slide
s - legato slide
/ -  slide into from below or out of upwards
\ -  slide into from above or out of downwards
~ - vibrato
W - wide vibrato
tr - trill
TP - tremolo picking
T - tapping
S - slap
P - pop
< - fade in
^ - brush up
v - brush down
comments
print report bad tab
I want to post or [tab]
guest
You may want to rate the tab now too:
select rating
Please do not post tabs as comments. Select "correction" instead!