Oops, an error
Loading. Please wait.

Palms Read Tab

ver1
ver1

Whole song

Interactive

More versions @911Tabs.com
13,412 views 6 this week
4 commentsread comments
1 2 3 4 5
accurate
x 3
Autoscroll
+/-
esc
set tempo
stop
Contributor
Difficulty
Tuning
advanced
C# G# C# F# A# D#
Hey! There's an official Ultimate Guitar app which is ideal
for learning songs when you're away from computer. Get the app
WARNING: You are trying to view
                                    content from Ultimate-Guitar.com
                                    in an unauthorized application,
                                    which is prohibited.

                                    Please use an official Ultimate
                                    Guitar Tabs application for iPhone,
                                    iPad or Android to access legitimate
                                    chords, guitar, bass, and drum tabs
                                    from Ultimate-Guitar.com database.

                                    Type "ultimate guitar tabs" in Apple
                                    App Store's or Android Market's
                                    search to find the application.
Protest the Hero
Palms Read
Tuning Drop C# (C#G#C#F#A#D#)


              PM PM PM PM PM PM
              S  S  S  S  S  S  S S S S S S S S S S
D#||-------|----------------------------------------|
A#||-------|----------------------------------------|
F#||-------|----------------------------------------|
C#||-------|------------------------------2---------|
G#||-------|--2--2--2--2--2--2--0-2-3-2-0---0-3-2-0-|
D#||-------|--0--0--0--0--0--0----------------------|


  PM PM PM PM PM PM       PM        PM
  S  S  S  S  S  S  S S S S  S S  S S  S S
-------------------------------------------|
-------------------------------------------|
-------------------------------------------|
--------------------6-7-9-0--7-9-10-0--3-0-|
--2--2--2--2--2--2-------------------------|
--0--0--0--0--0--0-------------------------|


  PM PM PM PM PM PM
  S  S  S  S  S  S  S S S S S S S S S S    S S Q    S S E  S S E
----------------------------------------|-------------------------|
----------------------------------------|-------------------------|
----------------------------------------|-------------------------|
------------------------------2---------|-------------------------|
--2--2--2--2--2--2--0-2-3-2-0---0-3-2-0-|------------------5-8-7--|
--0--0--0--0--0--0----------------------|--0-7-6----0-7-6---------|


                             PM PM PM PM PM PM
  S S Q    S S E  S S S S    S  S  S  S  S  S  S S S S S S S S S S
--------------------------|----------------------------------------|
--------------------------|----------------------------------------|
--------------------------|----------------------------------------|
--------------------------|------------------------------2---------|
--------------------------|--2--2--2--2--2--2--0-2-3-2-0---0-3-2-0-|
--0-7-6----0-7-6--0-7-6-0-|--0--0--0--0--0--0----------------------|


  PM PM PM PM PM PM       PM        PM
  S  S  S  S  S  S  S S S S  S S  S S  S S
-------------------------------------------|
-------------------------------------------|
-------------------------------------------|
--------------------6-7-9-0--7-9-10-0--3-0-|
--2--2--2--2--2--2-------------------------|
--0--0--0--0--0--0-------------------------|


  PM PM PM PM PM PM
  S  S  S  S  S  S  S S S S S S S S S S    S S Q    S S E  S S E
----------------------------------------|-------------------------|
----------------------------------------|-------------------------|
----------------------------------------|-------------------------|
------------------------------2---------|-------------------------|
--2--2--2--2--2--2--0-2-3-2-0---0-3-2-0-|------------------5-8-7--|
--0--0--0--0--0--0----------------------|--0-7-6----0-7-6---------|


  S S Q    S S E  S S S S            E  E  E  E  E  E   E   E   E  E   E  E
--------------------------|-------|------------------------------------------|
--------------------------|-------|-----------------9--10--12--10--9---------|
--------------------------|-------|--------------9--------------------11--9--|
--------------------------|-------|-----6--7--9------------------------------|
--------------------------|-------|--7---------------------------------------|
--0-7-6----0-7-6--0-7-6---|-------|------------------------------------------|


  E   E   E  E   E  E   E   E  E   E  E  E
--------------------------------------------|
-----12--10--9-------------10--9------------|
--8-------------11--9-------------11--9--8--|
-----------------------11-------------------|
--------------------------------------------|
--------------------------------------------|


   E   E   E   E   E   E   E   E   E   E   E   E
--------------------------------------------------|
--------------------------------------12----------|
----------------------11--13--11--------------11--|
------------------14--------------14------14------|
------11--12--14----------------------------------|
--12----------------------------------------------|


   E   E  E  E   E   E   E   E   E   E   E   E
--------------------------------------------14--|
-------------9--12--10------12------14----------|
------11--9-------------11------11------11------|
--13--------------------------------------------|
------------------------------------------------|
------------------------------------------------|


  E  E  E  E  E  E  E  E  E  E  E  E     E  E  E  E  E  E  E  E  E  E  E  E
--------------------------------------|--------------------------------------|
-----------------5--7--9--7-----------|-----9--7--------------7--5-----------|
--------------6--------------9--8--6--|-----------9--8--6-----------8--6-----|
-----------6--------------------------|--9-----------------7--------------9--|
-----7--9-----------------------------|--------------------------------------|
--9-----------------------------------|--------------------------------------|


  E  E  E  E  E  E  E  E  E  E  E   E
---------------------------------------|
-----------------5--7--9--5--7--9--12--|
--------------6------------------------|
--6--------6---------------------------|
-----7--9------------------------------|
---------------------------------------|


  E  E   E  E   E   E   Q       E   Q.
--9---------9--12--14--14br----12----------|
-----9--12-------------------------13------|
-------------------------------------------|
-------------------------------------------|
-------------------------------------------|
-------------------------------------------|


   PM           PM PM         PM PM PM          PM PM PM
   S  S S S S S S  S  S S S S S  S  S  S    S S E  S  S  S S S S S S S S S S
-----------------------------------------|-----------------------------------|
--12--L----------------------------------|-----------------------------------|
-----------------------------------------|-----------------------------------|
-----------------------------------------|-----------------------------------|
---2------------2--2----------2--2--2----|------2--2--2----------------------|
---0------------0--0----------0--0--0----|------0--0--0----------------------|


  PM       PM PM         PM PM PM
  Q    S S S  S  S S S S S  S  S  S
------------------------------------|
------------------------------------|
------------------------------------|
------------------------------------|
--2--------2--2----------2--2--2----|
--0--------0--0----------0--0--0----|


  S  S  S  S  S  S  S S S  S  S  S  S  S  S S
----------------------------------------------|
--7h-8p-7s-5s-4h-5p-4-------------------------|
----------------------5-4h-5p-4s-2s-1h-2p-1---|
--------------------------------------------3-|
----------------------------------------------|
----------------------------------------------|


  PM           PM PM         PM PM PM          PM PM PM
  S  S S S S S S  S  S S S S S  S  S  S    S S E  S  S  S S S S S S S S S S
----------------------------------------|-----------------------------------|
----------------------------------------|-----------------------------------|
----------------------------------------|-----------------------------------|
----------------------------------------|-----------------------------------|
--2------------2--2----------2--2--2----|------2--2--2----------------------|
--0------------0--0----------0--0--0----|------0--0--0----------------------|


  PM       PM PM         PM PM PM
  Q    S S S  S  S S S S S  S  S  S
------------------------------------|
------------------------------------|
------------------------------------|
------------------------------------|
--2--------2--2----------2--2--2----|
--0--------0--0----------0--0--0----|


  S  S  S  S  S  S  S S  S  S  S  S  S  S  S S
--6h-7p-6s-3s-2h-3p-2--------------------------|
----------------------5p-4h-5p-4s-1s-0h-1p-0---|
---------------------------------------------2-|
-----------------------------------------------|
-----------------------------------------------|
-----------------------------------------------|


   S  S  S  S  S S S S  S  S  S  S  S S S S
--17-13----------------13-------------------|
--------15----------------15----------------|
-----------14----------------14-------------|
--------------15----------------15----------|
-----------------------------------17-------|
--------------------------------------------|


  S S  S  S  S  S  S  S  S  S  S  S   S  S  S  S
------12-------------------------13s-15-12-------|
---------13-------------------15-----------13----|
------------14-------------15-----------------12-|
---------------14-------15-----------------------|
------------------15-12--------------------------|
-------------------------------------------------|


  S S  S  S  S  S  S S S S  S  S  S  S  S S
------17-13----------------13---------------|
------------15----------------15------------|
---------------14----------------14---------|
------------------15----------------15------|
---------------------------------------17---|
--------------------------------------------|


  S S  S  S  S  S  S  S   S  S  S  S  E   E   Q
---------------------12s-15-12---------------------|
------------------13-----------13------------------|
---------------14-----------------14---------------|
------------14-----------------------14------------|
------12-15------------------------------15~-------|
---------------------------------------------------|


   S  S  S  S  S  S  S  S  S  S  S  S  S  S  S  S
--------13-17-13----------------------------------|
-----15----------15-------------------------------|
--14----------------14-------------13----------13-|
-----------------------15-------15----------15----|
--------------------------14-17-------14-17-------|
--------------------------------------------------|


   S  S  S  S  S  S  S  S  S  S S S  S  S S S
--------13-17-13--------------------13-16-----|
-----15----------15---------------------------|
--14----------------14------------------------|
-----------------------15-12-15---------------|
----------------------------------------------|
----------------------------------------------|


   S  S  S  S  S  S  S  S  S  S  S  S  S  S  S  S
--------13-17-13----------------------------------|
-----15----------15-------------------------------|
--14----------------14-------------13----------13-|
-----------------------15-------15----------15----|
--------------------------14-17-------14-17-------|
--------------------------------------------------|


   S  S  S  S  S  S  S  S  S  S S S  S  S S S
--------13-17-13--------------------13-16-----|
-----15----------15---------------------------|
--14----------------14------------------------|
-----------------------15-12-15---------------|
----------------------------------------------|
----------------------------------------------|


  PM           PM PM         PM PM PM          PM PM PM
  S  S S S S S S  S  S S S S S  S  S  S    S S E  S  S  S S S S S S S S S S
----------------------------------------|-----------------------------------|
----------------------------------------|-----------------------------------|
----------------------------------------|-----------------------------------|
----------------------------------------|-----------------------------------|
--2------------2--2----------2--2--2----|------2--2--2----------------------|
--0------------0--0----------0--0--0----|------0--0--0----------------------|


  PM       PM PM         PM PM PM
  Q    S S S  S  S S S S S  S  S  S
------------------------------------|
------------------------------------|
------------------------------------|
------------------------------------|
--2--------2--2----------2--2--2----|
--0--------0--0----------0--0--0----|


  S  S  S  S  S  S  S S S  S  S  S  S  S  S S
----------------------------------------------|
--7h-8p-7s-5s-4h-5p-4-------------------------|
----------------------5-4h-5p-4s-2s-1h-2p-1---|
--------------------------------------------3-|
----------------------------------------------|
----------------------------------------------|


  PM           PM PM         PM PM PM          PM PM PM
  S  S S S S S S  S  S S S S S  S  S  S    S S E  S  S  S S S S S S S S S S
----------------------------------------|-----------------------------------|
----------------------------------------|-----------------------------------|
----------------------------------------|-----------------------------------|
----------------------------------------|-----------------------------------|
--2------------2--2----------2--2--2----|------2--2--2----------------------|
--0------------0--0----------0--0--0----|------0--0--0----------------------|


  PM       PM PM         PM PM PM
  Q    S S S  S  S S S S S  S  S  S    S  S  S  S  S  S  S S  S  S  S  S  Q
------------------------------------|--6h-7p-6s-3s-2h-3p-2---------------------|
------------------------------------|----------------------5p-4h-5p-4s-1h------|
------------------------------------|-------------------------------------4----|
------------------------------------|------------------------------------------|
--2--------2--2----------2--2--2----|------------------------------------------|
--0--------0--0----------0--0--0----|------------------------------------------|


  H.            Q       S S S S S S S S S S S S    S S S S S S S S S S S S
---------------------|--------------------------|--------------------------|
---------------------|--------------------------|--------------------------|
--L\-----------------|--------------------------|--------------------------|
---------------------|--x-7-5-7-5---x-7-5-7-5---|--x-7-5-7-5-----------4-5-|
---------------------|--------------------------|------------6-----3-5-----|
---------------------|------------8-----------6-|--------------3-5---------|


  S S S S S S S S S S S S    S S S S S S S S S S S S
--------------------------|--------------------------|
--------------------------|--------------------------|
--------------------------|--------------------------|
--x-7-5-7-5---x-7-5-7-5---|--x-7-5-7-5-----------4-5-|
--------------------------|------------6-----3-5-----|
------------8-----------6-|--------------3-5---------|


  S S S S S  S S S S S S S    S S S S S S S S S S S S
---------------------------|--------------------------|
---------------------------|--------------------------|
----9-7-9-7------9-7-9-7---|----9-7-9-7-----------6-7-|
--x------------x-----------|--x---------8-----5-7-----|
------------10-----------8-|--------------5-7---------|
---------------------------|--------------------------|


  S S S S S  S S S S S S S    S S S S S S S S S S S S
---------------------------|--------------------------|
---------------------------|--------------------------|
----9-7-9-7------9-7-9-7---|----9-7-9-7-----------6-7-|
--x------------x-----------|--x---------8-----5-7-----|
------------10-----------8-|--------------5-7---------|
---------------------------|--------------------------|


  E  E  E  E  E  E   E   E   E  E   E  E
------------------------------------------|
-----------------9--10--12--10--9---------|
--------------9--------------------11--9--|
-----6--7--9------------------------------|
--7---------------------------------------|
------------------------------------------|


  E   E   E  E   E  E   E   E  E   E  E  E
--------------------------------------------|
-----12--10--9-------------10--9------------|
--8-------------11--9-------------11--9--8--|
-----------------------11-------------------|
--------------------------------------------|
--------------------------------------------|


   E   E   E   E   E   E   E   E   E   E   E   E
--------------------------------------------------|
--------------------------------------12----------|
----------------------11--13--11--------------11--|
------------------14--------------14------14------|
------11--12--14----------------------------------|
--12----------------------------------------------|


   E   E  E  E   E   E   E   E   E   E   E   E
--------------------------------------------14--|
-------------9--12--10------12------14----------|
------11--9-------------11------11------11------|
--13--------------------------------------------|
------------------------------------------------|
------------------------------------------------|


  E  E  E  E  E  E  E  E  E  E  E  E     E  E  E  E  E  E  E  E  E  E  E  E
--------------------------------------|--------------------------------------|
-----------------5--7--9--7-----------|-----9--7--------------7--5-----------|
--------------6--------------9--8--6--|-----------9--8--6-----------8--6-----|
-----------6--------------------------|--9-----------------7--------------9--|
-----7--9-----------------------------|--------------------------------------|
--9-----------------------------------|--------------------------------------|


  E  E  E   E   E  E   E   E   E  E  E   E
--------------------------------------------|
--------------------------------------------|
-------------------9--11--13--11--9--8------|
---------------11-----------------------11--|
-----7--9--11-------------------------------|
--9-----------------------------------------|


  E   E   E  E   E   E   E   E   E   E   E   E
------------------------------------11--12--14--|
------------------------10--12--14--------------|
-------------9--11--13--------------------------|
--9--11--13-------------------------------------|
------------------------------------------------|
------------------------------------------------|


   T  T  T  T  T  T  T  T  T  T  T  T  T  T  T  T  T  T  T  T  T  T  T  T  T  T
---L--L-16-------------------15----------15-------------14-------------------13-|
-----17----17-------------17----17----17----17-------15----15-------------15----|
--18----------18-------------------18----------18-16----------16----------------|
-----------------18----18----------------------------------------16----16-------|
--------------------19----------------------------------------------17----------|
--------------------------------------------------------------------------------|


   T  T  T  T  T  T  T  T  T  T  T  T  T  T  T  T  T  T T  T  T  T  T  T  T  T T
--------12-------------------11----------11-------------8----------------------8-|
-----13----13-------------13----13----13----13-------10---10----------------12---|
--14----------14-------------------14----------14-10---------10----------12------|
-----------------14----14---------------------------------------10----12---------|
--------------------15---------------------------------------------12------------|
---------------------------------------------------------------------------------|


  S S S S S S S S S S E     S S S S S S S S S S Q.        S S S S S S S S S S
-------------------------|-----------------------------|----------------------|
-------------------------|-----------------------------|----------------------|
-------------------------|-----------------------------|----------------------|
-------------------------|-----------------------------|----------------------|
-------------------------|-----------------------------|----------------------|
--3-2-0-2---2-1-0-1------|--3-2-0-2---2-1-0-1----------|--3-2-0-2---2-1-0-1---|


  S S S S S S S S S S         S S S S S S S S S S S S S S Q.
----------------------|----|-------------------------------------|
----------------------|----|-------------------------------------|
----------------------|----|-------------------------------------|
----------------------|----|-------------------------------------|
----------------------|----|-------------------------------------|
--3-2-0-2---2-1-0-1---|----|--3-2-0-2---2-1-0-3-2-3-2-3-2--------|


  S S S S S S S S S E.  S S S S S S S S    S S S S S S S S S S
----------------------------------------|----------------------|
----------------------------------------|----------------------|
----------------------------------------|----------------------|
----------------------------------------|----------------------|
----------------------------------------|--3-2-0-2---2-1-0-1-0-|
--3-2-0-2---2-1-0-1-----3-2-0-2---2-1-0-|----------------------|


  S S S S S S S S S S    S S S S S S S S S S    S S S S S S S S S S
----------------------|----------------------|----------------------|
----------------------|----------------------|----------------------|
----------------------|----------------------|----------------------|
----------------------|----------------------|----------------------|
--3-2-0-2---2-1-0-1-0-|--3-2-0-2---2-1-0-1-0-|--3-2-0-2---2-1-0-1-0-|
----------------------|----------------------|----------------------|


  E.  E.  Q    Q    E     E.  E.  Q    Q    E     E.  E.  Q    Q    E
-----------------------|-----------------------|-----------------------|
-----------------------|-----------------------|-----------------------|
-----------------------|-----------------------|-----------------------|
--5---4---3----4----3--|--5---4---3----4----3--|-----------------------|
--3---2---1----2----1--|--3---2---1----2----1--|--3---2---1----2----1--|
-----------------------|-----------------------|--3---2---1----2----1--|


  E.  E.  Q    Q    E     S S S  S S S S S  S  S  S  S  S  S  S  S
-----------------------|-------------------------------------------|
-----------------------|-------------------------------------------|
-----------------------|-------------------------------------------|
-----------------------|-------------------------------------------|
--3---2---1----2----1--|--------11---------11-12-14-15-14-12-11-12-|
--3---2---1----2----1--|--0-0-0----0-0-0-0-------------------------|


  S S S  S S S S S  S  S  S  S  S  S  E
------------------------------------------|
------------------------------------------|
------------------------------------------|
------------------------------------------|
--------11---------11-12----12----12------|
--0-0-0----0-0-0-0-------13----12----10~--|


  S S S  S S S S S  S  S  S  S  S  S  S  S
-------------------------------------------|
-------------------------------------------|
-------------------------------------------|
-------------------------------------------|
--------11---------11-12-14-15-14-12-11-12-|
--0-0-0----0-0-0-0-------------------------|


  S S S  S S S S S  S  S  S  S  S  S  E      S S S S S S S S H
------------------------------------------|---------------------------|
------------------------------------------|---------------------------|
------------------------------------------|---------------------------|
------------------------------------------|---------------------------|
--------11---------11-12----12----12------|--2-2-2-2-2-2--------------|
--0-0-0----0-0-0-0-------13----12----10~--|--0-0-0-0-0-0--------------|


  S S S S S S S S H           S S S S S S S S H
---------------------------|---------------------------|
---------------------------|---------------------------|
---------------------------|---------------------------|
---------------------------|---------------------------|
--2-2-2-2-2-2--------------|--2-2-2-2-2-2--------------|
--0-0-0-0-0-0--------------|--0-0-0-0-0-0--------------|


  S S Q    S S E  S S E     S S Q    S S E  S S S S    S S Q    S S E  S S
-------------------------|--------------------------|----------------------|
-------------------------|--------------------------|----------------------|
-------------------------|--------------------------|----------------------|
-------------------------|--------------------------|----------------------|
------------------5-8-7--|--------------------------|------------------5-8-|
--0-7-6----0-7-6---------|--0-7-6----0-7-6--0-7-6---|--0-7-6----0-7-6------|


  S S Q    S S E  S S E     S S Q    S S E  S S    Q.     Q.
-------------------------|----------------------|----------------|
-------------------------|----------------------|----------------|
-------------------------|----------------------|----------------|
-------------------------|----------------------|--7-------------|
------------------5-8-7--|----------------------|--5------5------|
--0-7-6----0-7-6---------|--0-7-6----0-7-6--0-7-|---------3------|


  Q    Q    Q    Q       Q    E.  E.  E.  E.     Q    H.
----------------------|-----------------------|--------------------|----|
----------------------|-----------------------|--------------------|----|
----------------------|-----------------------|--------------------|----|
------------3---------|--5----7-----------8---|--7-----------------|----|
--3----5----1----5----|--3----5---5---7---6---|--5-----------------|----|
--1----3---------3----|-----------3---5-------|--------------------|----|


  E.  E.  E.  E.     Q.     Q.        Q    Q    Q    Q    Q
------------------|----------------|---------------------------|
------------------|----------------|---------------------------|
------------------|----------------|---------------------------|
--7-----------8---|--7-------------|------------3--------------|
--5---5---7---6---|--5------5------|--3----5----1----5----3----|
------3---5-------|---------3------|--1----3---------3----1----|


  E  E  E  Q.     E  E   E   Q.          H.             E   E   E  Q.
-------------------------------------|-----------------12-----------------|
---------------------9--10--12~------|---L~----------------12--10--9------|
------------------9------------------|------------------------------------|
-----6--7--9-------------------------|------------------------------------|
--7----------------------------------|------------------------------------|
-------------------------------------|------------------------------------|


  E  E  E  Q.     E  E   E   Q.
-------------------------------------|
---------------------9--10--12~------|
------------------9------------------|
-----6--7--9-------------------------|
--7----------------------------------|
-------------------------------------|


   Q.       E   E   E   E   E   E   Q.         E  E  E  Q.     E  E  E  Q.
-----------12----------19--16---------------|----------------------------------|
---L~----------12--10----------17-----------|------------------------7--9------|
-----------------------------------16~------|------------------6--9------------|
--------------------------------------------|-----------6----------------------|
--------------------------------------------|-----7--9-------------------------|
--------------------------------------------|--9-------------------------------|


    Q     E   E   E   E   Q     H
-----------------12--14------------------|
-------------12----------16--------------|
---------13--------------------16--------|
--/11------------------------------------|
-----------------------------------------|
-----------------------------------------|


  E  E  E   E  E  E   E  E  E   E  E   E
------------------------------------------|
-------------------------9---------9--12--|
------------------9--11-----9--11---------|
---------------9--------------------------|
-----7--9--11-----------------------------|
--9---------------------------------------|


  E  E   E  E   E   E   H.
--9---------9--12--14--14br------------|
-----9--12-----------------------------|
---------------------------------------|
---------------------------------------|
---------------------------------------|
---------------------------------------|


   |---3--|  |--3--|  |--3--|  |--3--|  |--3--|  |--3--|  |--3--|  |--3--|
   S   S  S  S  S  S  S  S  S  S  S  S  S  S  S  S  S  S  S  S  S  S  S  S
--12~--L--L--L--L--L--L--L--L--L--L--L-------------------------------------|
---------------------------------------------------------------------------|
---------------------------------------------------------------------------|
---------------------------------------------------------12-12-12-12-12-12-|
--10--10-10-10-10-10-10-10-10-10-10-10-10-10-10-10-10-10-10-10-10-10-10-10-|
---8---8--8--8--8--8--8--8--8--8--8--8--7--7--7--7--7--7--8--8--8--8--8--8-|


   |--3--|  |--3--|  |--3--|  |--3--|  |--3--|  |--3--|  |--3--|  |--3--|
   S  S  S  S  S  S  S  S  S  S  S  S  S  S  S  S  S  S  S  S  S  S  S  S
--------------------------------------------------------------------------|
--------------------------------------------------------------------------|
--------------------------------------------------------------------------|
--------------------------------------------------------------------------|
--10-10-10-10-10-10-10-10-10-10-10-10-10-10-10-10-10-10-10-10-10-10-10-10-|
---8--8--8--8--8--8--8--8--8--8--8--8--8--8--8--8--8--8--7--7--7--7--7--7-|


  |-3-| |-3-| |-3-| |-3-| |-3-| |-3-| |-3-| |-3-|
  S S S S S S S S S S S S S S S S S S S S S S S S
--------------------------------------------------|
--------------------------------------------------|
--------------------------------------------------|
--------------------------------------------------|
--7-7-7-7-7-7-7-7-7-7-7-7-3-3-3-3-3-3-3-3-3-3-3-3-|
--5-5-5-5-5-5-5-5-5-5-5-5-1-1-1-1-1-1-1-1-1-1-1-1-|


  |-3-| |-3-| |-3-| |-3-| |-3-| |-3-| |-3-| |-3-|
  S S S S S S S S S S S S S S S S S S S S S S S S
--------------------------------------------------|
--------------------------------------------------|
--------------------------------------------------|
--7-7-7-7-7-7-7-7-7-7-7-7-------------------------|
--5-5-5-5-5-5-5-5-5-5-5-5-3-3-3-3-3-3-3-3-3-3-3-3-|
--------------------------1-1-1-1-1-1-1-1-1-1-1-1-|


   |--3--|  |--3--|  |--3--|  |--3--|  |--3--|  |--3--|  |--3--|  |--3--|
   S  S  S  S  S  S  S  S  S  S  S  S  S  S  S  S  S  S  S  S  S  S  S  S
--------------------------------------------------------------------------|
--------------------------------------------------------------------------|
--------------------------------------------------------------------------|
--------------------------------------------------------12-12-12-12-12-12-|
--10-10-10-10-10-10-10-10-10-10-10-10-10-10-10-10-10-10-10-10-10-10-10-10-|
---8--8--8--8--8--8--8--8--8--8--8--8--7--7--7--7--7--7--8--8--8--8--8--8-|


   |--3--|  |--3--|  |--3--|  |--3--|  |--3--|  |--3--|  |--3--|  |--3--|
   S  S  S  S  S  S  S  S  S  S  S  S  S  S  S  S  S  S  S  S  S  S  S  S
--------------------------------------------------------------------------|
--------------------------------------------------------------------------|
--------------------------------------------------------------------------|
--------------------------------------------------------------------------|
--10-10-10-10-10-10-10-10-10-10-10-10-10-10-10-10-10-10-10-10-10-10-10-10-|
---8--8--8--8--8--8--8--8--8--8--8--8--8--8--8--8--8--8--7--7--7--7--7--7-|


  |-3-| |-3-| |-3-| |-3-| |-3-| |-3-| |-3-| |-3-|
  S S S S S S S S S S S S S S S S S S S S S S S S
--------------------------------------------------|
--------------------------------------------------|
--------------------------------------------------|
--------------------------------------------------|
--7-7-7-7-7-7-7-7-7-7-7-7-3-3-3-3-3-3-3-3-3-3-3-3-|
--5-5-5-5-5-5-5-5-5-5-5-5-1-1-1-1-1-1-1-1-1-1-1-1-|


  |-3-| |-3-| |-3-| |-3-| |-3-| |-3-| |-3-| |-3-|
  S S S S S S S S S S S S S S S S S S S S S S S S
--------------------------------------------------|
--------------------------------------------------|
--------------------------------------------------|
--7-7-7-7-7-7-7-7-7-7-7-7-------------------------|
--5-5-5-5-5-5-5-5-5-5-5-5-3-3-3-3-3-3-3-3-3-3-3-3-|
--------------------------1-1-1-1-1-1-1-1-1-1-1-1-|


   |-3-|  |--3--|  |-3-|  |--3--|  |-3-|  |--3--|  |-3-|  |--3--|
   E   S  S  S  S  E   S  S  S  S  E   S  S  S  S  E   S  S  S  S
------------------------------------------------------------------|
------------------------------------------------------------------|
------------------------------------------------------------------|
--------------------------------------------------12--12-12-12-12-|
--10--10-10-10-10-10--10-10-10-10-10--10-10-10-10-10--10-10-10-10-|
---8---8--8--8--8--8---8--8--8--8--7---7--7--7--7--8---8--8--8--8-|


   |-3-|  |--3--|  |-3-|  |--3--|  |-3-|  |--3--|  |-3-|  |--3--|
   E   S  S  S  S  E   S  S  S  S  E   S  S  S  S  E   S  S  S  S
------------------------------------------------------------------|
------------------------------------------------------------------|
------------------------------------------------------------------|
------------------------------------------------------------------|
--10--10-10-10-10-10--10-10-10-10-10--10-10-10-10-10--10-10-10-10-|
---8---8--8--8--8--8---8--8--8--8--8---8--8--8--8--7---7--7--7--7-|


  |-3| |-3-| |-3| |-3-| |-3| |-3-| |-3| |-3-|
  E  S S S S E  S S S S E  S S S S E  S S S S
----------------------------------------------|
----------------------------------------------|
----------------------------------------------|
----------------------------------------------|
--7--7-7-7-7-7--7-7-7-7-3--3-3-3-3-3--3-3-3-3-|
--5--5-5-5-5-5--5-5-5-5-1--1-1-1-1-1--1-1-1-1-|


  |-3| |-3-| |-3| |-3-| |-3| |-3-| |-3| |-3-|
  E  S S S S E  S S S S E  S S S S E  S S S S
----------------------------------------------|
----------------------------------------------|
----------------------------------------------|
--7--7-7-7-7-7--7-7-7-7-----------------------|
--5--5-5-5-5-5--5-5-5-5-3--3-3-3-3-3--3-3-3-3-|
------------------------1--1-1-1-1-1--1-1-1-1-|


   |-3-|  |--3--|  |-3-|  |--3--|  |-3-|  |--3--|  |-3-|  |--3--|
   E   S  S  S  S  E   S  S  S  S  E   S  S  S  S  E   S  S  S  S
------------------------------------------------------------------|
------------------------------------------------------------------|
------------------------------------------------------------------|
--------------------------------------------------12--12-12-12-12-|
--10--10-10-10-10-10--10-10-10-10-10--10-10-10-10-10--10-10-10-10-|
---8---8--8--8--8--8---8--8--8--8--7---7--7--7--7--8---8--8--8--8-|


   |-3-|  |--3--|  |-3-|  |--3--|  |-3-|  |--3--|  |-3-|  |--3--|
   E   S  S  S  S  E   S  S  S  S  E   S  S  S  S  E   S  S  S  S
------------------------------------------------------------------|
------------------------------------------------------------------|
------------------------------------------------------------------|
------------------------------------------------------------------|
--10--10-10-10-10-10--10-10-10-10-10--10-10-10-10-10--10-10-10-10-|
---8---8--8--8--8--8---8--8--8--8--8---8--8--8--8--7---7--7--7--7-|


  |-3| |-3-| |-3| |-3-| |-3| |-3-| |-3| |-3-|
  E  S S S S E  S S S S E  S S S S E  S S S S
----------------------------------------------|
----------------------------------------------|
----------------------------------------------|
----------------------------------------------|
--7--7-7-7-7-7--7-7-7-7-3--3-3-3-3-3--3-3-3-3-|
--5--5-5-5-5-5--5-5-5-5-1--1-1-1-1-1--1-1-1-1-|


  |-3| |-3-| |-3| |-3-| |-3| |-3-| |-3| |-3-|
  E  S S S S E  S S S S E  S S S S E  S S S S
----------------------------------------------|
----------------------------------------------|
----------------------------------------------|
--7--7-7-7-7-7--7-7-7-7-----------------------|
--5--5-5-5-5-5--5-5-5-5-3--3-3-3-3-3--3-3-3-3-|
------------------------1--1-1-1-1-1--1-1-1-1-|


   |-3-|  |--3--|  |-3-|  |--3--|  |-3-|  |--3--|  |-3-|  |--3--|
   E   S  S  S  S  E   S  S  S  S  E   S  S  S  S  E   S  S  S  S
------------------------------------------------------------------|
------------------------------------------------------------------|
------------------------------------------------------------------|
--------------------------------------------------12--12-12-12-12-|
--10--10-10-10-10-10--10-10-10-10-10--10-10-10-10-10--10-10-10-10-|
---8---8--8--8--8--8---8--8--8--8--7---7--7--7--7--8---8--8--8--8-|


   |-3-|  |--3--|  |-3-|  |--3--|  |-3-|  |--3--|  |-3-|  |--3--|
   E   S  S  S  S  E   S  S  S  S  E   S  S  S  S  E   S  S  S  S
------------------------------------------------------------------|
------------------------------------------------------------------|
------------------------------------------------------------------|
------------------------------------------------------------------|
--10--10-10-10-10-10--10-10-10-10-10--10-10-10-10-10--10-10-10-10-|
---8---8--8--8--8--8---8--8--8--8--8---8--8--8--8--7---7--7--7--7-|


  |-3| |-3-| |-3| |-3-| |-3| |-3-| |-3| |-3-|
  E  S S S S E  S S S S E  S S S S E  S S S S
----------------------------------------------|
----------------------------------------------|
----------------------------------------------|
----------------------------------------------|
--7--7-7-7-7-7--7-7-7-7-3--3-3-3-3-3--3-3-3-3-|
--5--5-5-5-5-5--5-5-5-5-1--1-1-1-1-1--1-1-1-1-|


  |-3| |-3-| |-3| |-3-| |-3| |-3-| |-3| |-3-|
  E  S S S S E  S S S S E  S S S S E  S S S S
----------------------------------------------|
----------------------------------------------|
----------------------------------------------|
--7--7-7-7-7-7--7-7-7-7-----------------------|
--5--5-5-5-5-5--5-5-5-5-3--3-3-3-3-3--3-3-3-3-|
------------------------1--1-1-1-1-1--1-1-1-1-|


   |-3-|  |--3--|  |-3-|  |--3--|  |-3-|  |--3--|  |-3-|  |--3--|
   E   S  S  S  S  E   S  S  S  S  E   S  S  S  S  E   S  S  S  S
------------------------------------------------------------------|
------------------------------------------------------------------|
------------------------------------------------------------------|
--------------------------------------------------12--12-12-12-12-|
--10--10-10-10-10-10--10-10-10-10-10--10-10-10-10-10--10-10-10-10-|
---8---8--8--8--8--8---8--8--8--8--7---7--7--7--7--8---8--8--8--8-|


   |-3-|  |--3--|  |-3-|  |--3--|  |-3-|  |--3--|  |-3-|  |--3--|
   E   S  S  S  S  E   S  S  S  S  E   S  S  S  S  E   S  S  S  S
------------------------------------------------------------------|
------------------------------------------------------------------|
------------------------------------------------------------------|
------------------------------------------------------------------|
--10--10-10-10-10-10--10-10-10-10-10--10-10-10-10-10--10-10-10-10-|
---8---8--8--8--8--8---8--8--8--8--8---8--8--8--8--7---7--7--7--7-|


  |-3| |-3-| |-3| |-3-| |-3| |-3-| |-3| |-3-|
  E  S S S S E  S S S S E  S S S S E  S S S S
----------------------------------------------|----|
----------------------------------------------|----|
----------------------------------------------|----|
----------------------------------------------|----|
--7--7-7-7-7-7--7-7-7-7-3--3-3-3-3-3--3-3-3-3-|----|
--5--5-5-5-5-5--5-5-5-5-1--1-1-1-1-1--1-1-1-1-|----|


  S S E  S S S S E  S S E  S S    S S E  S S E  S S S S S S S S
-------------------------------|--------------------------------|
-------------------------------|--------------------------------|
-------------------------------|--------------------------------|
-------------------------------|--------------------------------|
--2-2----2-2-2-2----2-2----2-2-|--2-2----2-2----2-2-2-2-2-2-----|
--0-0----0-0-0-0----0-0----0-0-|--0-0----0-0----0-0-0-0-0-0-----|


  S S E  S S S S E  S S E  S S    S S E  S S E  S S S S S S S S
-------------------------------|--------------------------------|
-------------------------------|--------------------------------|
-------------------------------|--------------------------------|
-------------------------------|--------------------------------|
--2-2----2-2-2-2----2-2----2-2-|--2-2----2-2----2-2-2-2-2-2-----|
--0-0----0-0-0-0----0-0----0-0-|--0-0----0-0----0-0-0-0-0-0-----|


  S S E  S S S S E  S S E  S S    S S E  S S E  S S S S S S S S
-------------------------------|--------------------------------|
-------------------------------|--6-9-------------------6-9-----|
---------------7-------------7-|-----------7----------7---------|
-----------6-9--------6----9---|---------9--------6-9-----------|
----5----8----------8----------|----------------8---------------|
--7----------------------------|--------------------------------|


  S S E  S S S S E  S S E  S S     S S E  S S E  S S S S  S S S S
-------------------------------|----------------------------------|
-------------------------------|-----9----------------------9-----|
---------------7-------------7-|--10--------7----------7-10-------|
-----------6-9--------6----9---|----------9--------6-9------------|
----5----8----------8----------|-----------------8----------------|
--7----------------------------|----------------------------------|


  S S E  S S S S E  S S E  S S     S S E  S S E  S S S S  S S S S
-------------------------------|----------------------------------|
-------------------------------|-----9----------------------9-----|
---------------7-------------7-|--10--------7----------7-10-------|
-----------6-9--------6----9---|----------9--------6-9------------|
----5----8----------8----------|-----------------8----------------|
--7----------------------------|----------------------------------|


  S S E  S S S S E  S S E  S S     S S E  S S E  S S S S  S S S S
-------------------------------|----------------------------------|
-------------------------------|-----9----------------------9-----|
---------------7-------------7-|--10--------7----------7-10-------|
-----------6-9--------6----9---|----------9--------6-9------------|
----5----8----------8----------|-----------------8----------------|
--7----------------------------|----------------------------------|


  S S S S S S S S S S S S S S S S    S S S S S S S S S S S S S S S S
----------------------------------|----------------------------------|
----------------------------------|----------------------------------|
----------------------------------|----------------------------------|
----------------------------------|----------------------------------|
----------------------------------|----------------------------------|
--0-5-3-0-5-6-0-7-0-0-0-0-0-0-0-0-|--0-5-3-0-5-6-0-7-0-0-0-0-0-0-0-0-|


  S S S S S S S S S S S S S S S S    S S S S S S S S S S S S S S S S
----------------------------------|----------------------------------|
----------------------------------|----------------------------------|
----------------------------------|----------------------------------|
----------------------------------|----------------------------------|
----------------------------------|----------------------------------|
--0-5-3-0-5-6-0-7-0-5-3-0-5-6-0-7-|--0-5-3-0-5-6-0-7-x-0-0-0-0-0-----|


                    PM PM PM PM PM PM PM
  S S S S S S S E   S  S  S  S  S  S  S
-----------------------------------------|
-----------------------------------------|
-----------------------------------------|
-----------------------------------------|
--------------------2--2--2--2--2--2--2--|
--0-5-3-0-5-6-0-7s--0--0--0--0--0--0--0--|


                    PM PM PM PM PM PM PM
  S S S S S S S E   S  S  S  S  S  S  S     S S S S S S S S S S S S S S S S
-----------------------------------------|----------------------------------|
-----------------------------------------|----------------------------------|
-----------------------------------------|----------------------------------|
-----------------------------------------|----------------------------------|
--------------------2--2--2--2--2--2--2--|----------------------------------|
--0-5-3-0-5-6-0-7s--0--0--0--0--0--0--0--|--0-5-3-0-5-6-0-7-0-5-3-0-5-6-0-7-|


                    PM PM PM PM PM PM PM
  S S S S S S S E   S  S  S  S  S  S  S      S  S  S S  S  S S S H
-----------------------------------------|--------------------------------|
-----------------------------------------|--------------------------------|
-----------------------------------------|--------------------------------|
-----------------------------------------|--------------------------------|
--------------------2--2--2--2--2--2--2--|--13-12-10-0-10-12--------------|
--0-5-3-0-5-6-0-7s--0--0--0--0--0--0--0--|--------------------------------|


   S  S  S S  S  S S  S S  S  S S  S  S E
-------------------------------------------|
-------------------------------------------|
-------------------------------------------|
-------------------------------------------|
--13-12-10-0-10-12-0-13-0-12-10-0-10-12----|
----------------------------------------9--|


   S  S  S S  S  S S  S S  S  S S  S  S E
-------------------------------------------|
-------------------------------------------|
-------------------------------------------|
-------------------------------------------|
--13-12-10-0-10-12-0-13-0-12-10-0-10-12----|
----------------------------------------9--|


   S  S  S S  S  S S  S S  S  S S  S  S E
-------------------------------------------|
-------------------------------------------|
-------------------------------------------|
-------------------------------------------|
--13-12-10-0-10-12-0-13-0-12-10-0-10-12----|
----------------------------------------9--|


   S  S  S S  S  S  S  S  S  S  S  S  S  S  S  S
-------------------------------------------------|
-------------------------------------------------|
-------------------------------12-14-15-14-12----|
----------------------11-13-14----------------14-|
--13-12-10-0-10-12-13----------------------------|
-------------------------------------------------|


       PM      PM      PM      PM
   S S S   S S S   S S S   S S S   S S S S
-------------------------------------------|
-------------------------------------------|
-------------------------------------------|
-------------------------------------------|
--10-7-7--10-7-7--10-7-7--10-7-7--10-7-9-6-|
-------------------------------------------|


       PM      PM      PM      PM
   S S S   S S S   S S S   S S S   S S S S
-------------------------------------------|
-------------------------------------------|
-------------------------------------------|
-------------------------------------------|
--10-7-7--10-7-7--10-7-7--10-7-7--10-7-9-6-|
-------------------------------------------|


   S  S  S S  S  S S  S S  S  S S  S  S E
-------------------------------------------|
-------------------------------------------|
-------------------------------------------|
-------------------------------------------|
--13-12-10-0-10-12-0-13-0-12-10-0-10-12----|
----------------------------------------9--|


   S  S  S S  S  S  S  S  S  S  S  S  S  S  S  S
-------------------------------------------------|
-------------------------------------------------|
-------------------------------12-14-15-14-12----|
----------------------11-13-14----------------14-|
--13-12-10-0-10-12-13----------------------------|
-------------------------------------------------|


       PM      PM      PM      PM
   S S S   S S S   S S S   S S S   S S S S
-------------------------------------------|
-------------------------------------------|
-------------------------------------------|
-------------------------------------------|
--10-7-7--10-7-7--10-7-7--10-7-7--10-7-9-6-|
-------------------------------------------|


       PM      PM      PM      PM
   S S S   S S S   S S S   S S S   S S S S
-------------------------------------------|
-------------------------------------------|
-------------------------------------------|
-------------------------------------------|
--10-7-7--10-7-7--10-7-7--10-7-7--10-7-9-6-|
-------------------------------------------|


         PM       PM       PM       PM
   S  S  S  S  S  S  S  S  S  S  S  S  S  S  S S
-------------------------------------------------|
-------------------------------------------------|
-------------------------------------------------|
-------------------------------------------------|
--14-10-10-14-10-10-14-10-10-14-10-10-14-10-12-9-|
-------------------------------------------------|


         PM       PM       PM       PM
   S  S  S  S  S  S  S  S  S  S  S  S  S  S  S S
-------------------------------------------------|
-------------------------------------------------|
-------------------------------------------------|
-------------------------------------------------|
--15-12-12-15-12-12-15-12-12-15-12-12-15-12-12-9-|
-------------------------------------------------|


         PM       PM       PM       PM
   S  S  S  S  S  S  S  S  S  S  S  S  S  S  S S
-------------------------------------------------|
-------------------------------------------------|
-------------------------------------------------|
-------------------------------------------------|
--14-10-10-14-10-10-14-10-10-14-10-10-14-10-12-9-|
-------------------------------------------------|


         PM       PM       PM       PM
   S  S  S  S  S  S  S  S  S  S  S  S  S  S  S S
-------------------------------------------------|
-------------------------------------------------|
-------------------------------------------------|
-------------------------------------------------|
--15-12-12-15-12-12-15-12-12-15-12-12-15-12-12-9-|
-------------------------------------------------|


   S  S  S  S E   S  S  S  S E   S E.
--15-14-13-12--------------------------|
-----------------13-14-15-16----12-----|
---------------------------------------|
---------------------------------------|
---------------------------------------|
---------------------------------------|


   S  S  S  S  S  S  S  S  S  S  S  S  S  S  S  S
--------------------------------------------------|
--------------------------------------------------|
--14-13-12-11-10-15-14-13-14-13-12-11-10-11-12-13-|
--------------------------------------------------|
--------------------------------------------------|
--------------------------------------------------|


   S  S  S  S E   S  S  S  S E   S E.
--15-14-13-12--------------------------|
-----------------13-14-15-16----12-----|
---------------------------------------|
---------------------------------------|
---------------------------------------|
---------------------------------------|


                                         PM PM PM PM
   S S  S S  S S  S S  S  S  S  S  Q     S  S  S  S  S E.
--13-0-12-0------------------------------------------------|
------------15-0-12-0-13-15-12-13--------------------------|
----------------------------------12\----------------------|
-----------------------------------------------------------|
-----------------------------------------5--5--5--5--2-----|
-----------------------------------------3--3--3--3--0-----|


                                     PM PM PM PM PM
  E.  E.  Q    E.  E.  E.  E.  E     S  S  S  S  E
----------------------------------|-----------------|
-------------------------------6--|-----------------|
-----------------------4---6------|-----------------|
---------------3---5--------------|-----------------|
------2---4-----------------------|--5--5--5--5--2--|
--3-------------------------------|--3--3--3--3--0--|


                                PM PM PM PM PM    PM PM PM PM PM
  E.  E.  Q    E.  E.  E  E     S  S  S  S  E  E  S  S  S  S  E  E
-----------------------------|--------------------------------------|
-----------------------------|--------------------------------------|
-----------------------4--6--|--------------------------------------|
---------------3---5---------|--------------------------------------|
------2---4------------------|--5--5--5--5--2--2--5--5--5--5--2--5--|
--3--------------------------|--3--3--3--3--0--1--3--3--3--3--0--4--|


  PM PM PM PM PM                                            PM PM PM PM PM
  S  S  S  S  E  E     E.  E.  Q    E.  E.  E.   E.   E     S  S  S  S  E
--------------------|------------------------------------|-----------------|
--------------------|--------------------------------10--|-----------------|
--------------------|-----------------------8---10-------|-----------------|
--------------------|---------------7---9----------------|-----------------|
--5--5--5--5--2-----|------6---8-------------------------|--5--5--5--5--2--|
--3--3--3--3--0-----|--7---------------------------------|--3--3--3--3--0--|


                                 PM PM PM PM PM    PM PM PM PM PM
  E.  E.  Q    E.  E.  E   E     S  S  S  S  E  E  S  S  S  S  E  E
------------------------------|--------------------------------------|
------------------------------|--------------------------------------|
-----------------------8--10--|--------------------------------------|
---------------7---9----------|--------------------------------------|
------6---8-------------------|--5--5--5--5--2--2--5--5--5--5--2--5--|
--7---------------------------|--3--3--3--3--0--1--3--3--3--3--0--4--|


  PM PM PM PM PM               PM PM PM PM PM PM
  S  S  S  S  Q    H           S  S  S  S  E  E  E  Q.
----------------------------|------------------------------|
----------------------------|------------------------------|
----------------------------|------------------------------|
----------------------------|------------------------------|
--5--5--5--5--2-------------|--5--5--5--5--2--2-----2------|
--3--3--3--3--0-------------|--3--3--3--3--0--0-----1------|


  PM PM PM PM PM               PM PM PM PM PM    PM PM PM PM PM
  S  S  S  S  Q    H           S  S  S  S  E  E  S  S  S  S  E  E
----------------------------|--------------------------------------||
----------------------------|--------------------------------------||
----------------------------|--------------------------------------||
----------------------------|--------------------------------------||
--5--5--5--5--2-------------|--5--5--5--5--2--2--5--5--5--5--2--5--||
--3--3--3--3--0-------------|--3--3--3--3--0--1--3--3--3--3--0--4--||

----------------------------------------------------------------------------------

Guitar 2

          palms read


                                                                protest the hero
Track 3

              PM PM PM PM PM PM                 PM PM PM PM PM PM
              S  S  S  S  S  S  S S H           S  S  S  S  S  S  S S H
D#||-------|---------------------------------|---------------------------------|
A#||-------|---------------------------------|---------------------------------|
F#||-------|---------------------------------|---------------------------------|
C#||-------|---------------------------------|---------------------------------|
G#||-------|--2--2--2--2--2--2---------------|--2--2--2--2--2--2---------------|
D#||-------|--0--0--0--0--0--0---------------|--0--0--0--0--0--0---------------|


  PM PM PM PM PM PM
  S  S  S  S  S  S  S S H           S S Q    S S E  S S E
---------------------------------|-------------------------|
---------------------------------|-------------------------|
---------------------------------|-------------------------|
---------------------------------|-------------------------|
--2--2--2--2--2--2---------------|------------------5-8-7--|
--0--0--0--0--0--0---------------|--0-7-6----0-7-6---------|


                             PM PM PM PM PM PM
  S S Q    S S E  S S S S    S  S  S  S  S  S  S S H
--------------------------|---------------------------------|
--------------------------|---------------------------------|
--------------------------|---------------------------------|
--------------------------|---------------------------------|
--------------------------|--2--2--2--2--2--2---------------|
--0-7-6----0-7-6--0-7-6-0-|--0--0--0--0--0--0---------------|


  PM PM PM PM PM PM                 PM PM PM PM PM PM
  S  S  S  S  S  S  S S H           S  S  S  S  S  S  S S H
---------------------------------|---------------------------------|
---------------------------------|---------------------------------|
---------------------------------|---------------------------------|
---------------------------------|---------------------------------|
--2--2--2--2--2--2---------------|--2--2--2--2--2--2---------------|
--0--0--0--0--0--0---------------|--0--0--0--0--0--0---------------|


  S S Q    S S E  S S E     S S Q    S S E  S S S S
-------------------------|--------------------------|-------|
-------------------------|--------------------------|-------|
-------------------------|--------------------------|-------|
------------------3-6-5--|--------------------------|-------|
--2-5-4----2-5-4---------|--2-5-4----2-5-4--2-5-4---|-------|
-------------------------|--------------------------|-------|


  Q    E  E  E  E  Q    E  E  E  E     Q    E  E  E  E  Q    E  E  E  E
------------------------------------|------------------------------------|
------------------------------------|------------------------------------|
------------------------------------|------------------------------------|
------------------------------------|--4----4--4--4--4--2----2--2--2--2--|
--2----2--2--2--2--2----2--2--2--2--|--2----2--2--2--2--0----0--0--0--0--|
--0----0--0--0--0--0----0--0--0--0--|------------------------------------|


  Q    E  E  E  E  Q    E  E  E  E     Q    E  E  E  E  Q    E  E  E  E
------------------------------------|------------------------------------|
------------------------------------|------------------------------------|
------------------------------------|------------------------------------|
------------------------------------|--4----4--4--4--4--2----2--2--2--2--|
--2----2--2--2--2--2----2--2--2--2--|--2----2--2--2--2--0----0--0--0--0--|
--0----0--0--0--0--0----0--0--0--0--|------------------------------------|


  Q    E  E  E  E  Q    E  E  E  E     Q    E  E  E  E  Q    E  E  E  E
------------------------------------|------------------------------------|
------------------------------------|------------------------------------|
------------------------------------|------------------------------------|
--6----6--6--6--6--6----6--6--6--6--|--4----4--4--4--4--2----2--2--2--2--|
--4----4--4--4--4--4----4--4--4--4--|--2----2--2--2--2--0----0--0--0--0--|
------------------------------------|------------------------------------|


  Q    E  E  E  E  Q    E  E  E  E     Q    E  E  E  E  Q.     Q    E
------------------------------------|----------------------------------|
------------------------------------|----------------------------------|
------------------------------------|----------------------------------|
--6----6--6--6--6--6----6--6--6--6--|--2----2--2--2--2--4------4-------|
--4----4--4--4--4--4----4--4--4--4--|--0----0--0--0--0--2------2-------|
------------------------------------|----------------------------------|


  PM           PM PM         PM PM PM          PM PM PM
  S  S S S S S S  S  S S S S S  S  S  S    S S E  S  S  S S S S S S S S S S
----------------------------------------|-----------------------------------|
----------------------------------------|-----------------------------------|
----------------------------------------|-----------------------------------|
----------------------------------------|-----------------------------------|
--2------------2--2----------2--2--2----|------2--2--2----------------------|
--0------------0--0----------0--0--0----|------0--0--0----------------------|


  PM       PM PM         PM PM PM
  Q    S S S  S  S S S S S  S  S  S
------------------------------------|
------------------------------------|
------------------------------------|
------------------------------------|
--2--------2--2----------2--2--2----|
--0--------0--0----------0--0--0----|


  S  S  S  S  S  S  S S S  S  S  S  S  S  S S
----------------------------------------------|
--7h-8p-7s-5s-4h-5p-4-------------------------|
----------------------5-4h-5p-4s-2s-1h-2p-1---|
--------------------------------------------3-|
----------------------------------------------|
----------------------------------------------|


  PM           PM PM         PM PM PM          PM PM PM
  S  S S S S S S  S  S S S S S  S  S  S    S S E  S  S  S S S S S S S S S S
----------------------------------------|-----------------------------------|
----------------------------------------|-----------------------------------|
----------------------------------------|-----------------------------------|
----------------------------------------|-----------------------------------|
--2------------2--2----------2--2--2----|------2--2--2----------------------|
--0------------0--0----------0--0--0----|------0--0--0----------------------|


  PM       PM PM         PM PM PM
  Q    S S S  S  S S S S S  S  S  S
------------------------------------|
------------------------------------|
------------------------------------|
------------------------------------|
--2--------2--2----------2--2--2----|
--0--------0--0----------0--0--0----|


  S  S  S  S  S  S  S S S  S  S  S  S  S  S S
----------------------------------------------|
--7h-8p-7s-5s-4h-5p-4-------------------------|
----------------------5-4h-5p-4s-2s-1h-2p-1---|
--------------------------------------------3-|
----------------------------------------------|
----------------------------------------------|


  PM PM PM PM PM       PM PM PM PM PM
  S  S  S  S  S  S S S S  S  S  S  S  S S S
--------------------------------------------|
--------------------------------------------|
--------------------------------------------|
--------------------------------------------|
--5--5--5--5--5--------5--5--5--5--5--------|
--------------------------------------------|


      PM PM PM PM PM PM PM PM PM PM PM PM PM PM
  S S S  S  S  S  S  S  S  S  S  S  S  S  S  S
------------------------------------------------|
------------------------------------------------|
------------------------------------------------|
------------------------------------------------|
------0--0--0--0--0--0--1--1--1--1--3--3--3--3--|
------------------------------------------------|


      PM PM PM PM PM       PM PM PM PM PM
  S S S  S  S  S  S  S S S S  S  S  S  S  S
--------------------------------------------|
--------------------------------------------|
--------------------------------------------|
--------------------------------------------|
------5--5--5--5--5--------5--5--5--5--5----|
--------------------------------------------|


      PM PM PM PM PM PM PM PM PM PM PM
  S S S  S  S  S  S  S  E  S  S  E  S  S Q       H        H
----------------------------------------------|--------------------|
----------------------------------------------|--------------------|
----------------------------------------------|--------------------|
----------------------------------------------|--7--------6--------|
------1--1--1--1--1--1--3--3--3--3--3---------|--5--------6--------|
----------------------------------------------|--5--------4--------|


  H        E  E  E  E     H        H           H        E  E  E  E
-----------------------|--------------------|-----------------------|
-----------------------|--------------------|-----------------------|
-----------------------|--------------------|-----------------------|
--7--------6-----6-----|--7--------6--------|--7--------6-----6-----|
--5--------6-----6-----|--5--------6--------|--5--------6-----6-----|
--5--------4-----4-----|--5--------4--------|--5--------4-----4-----|


  PM           PM PM         PM PM PM          PM PM PM
  S  S S S S S S  S  S S S S S  S  S  S    S S E  S  S  S S S S S S S S S S
----------------------------------------|-----------------------------------|
----------------------------------------|-----------------------------------|
----------------------------------------|-----------------------------------|
----------------------------------------|-----------------------------------|
--2------------2--2----------2--2--2----|------2--2--2----------------------|
--0------------0--0----------0--0--0----|------0--0--0----------------------|


  PM       PM PM         PM PM PM
  Q    S S S  S  S S S S S  S  S  S
------------------------------------|
------------------------------------|
------------------------------------|
------------------------------------|
--2--------2--2----------2--2--2----|
--0--------0--0----------0--0--0----|


  S  S  S  S  S  S  S S S  S  S  S  S  S  S S
----------------------------------------------|
--7h-8p-7s-5s-4h-5p-4-------------------------|
----------------------5-4h-5p-4s-2s-1h-2p-1---|
--------------------------------------------3-|
----------------------------------------------|
----------------------------------------------|


  PM           PM PM         PM PM PM          PM PM PM
  S  S S S S S S  S  S S S S S  S  S  S    S S E  S  S  S S S S S S S S S S
----------------------------------------|-----------------------------------|
----------------------------------------|-----------------------------------|
----------------------------------------|-----------------------------------|
----------------------------------------|-----------------------------------|
--2------------2--2----------2--2--2----|------2--2--2----------------------|
--0------------0--0----------0--0--0----|------0--0--0----------------------|


  PM       PM PM         PM PM PM
  Q    S S S  S  S S S S S  S  S  S    S  S  S  S  S  S  S S S  S  S  S  Q
------------------------------------|-----------------------------------------|
------------------------------------|--7h-8p-7s-5s-4h-5p-4--------------------|
------------------------------------|----------------------5-4h-5p-4s-2s-1----|
------------------------------------|-----------------------------------------|
--2--------2--2----------2--2--2----|-----------------------------------------|
--0--------0--0----------0--0--0----|-----------------------------------------|


  H.            Q       S S S S S S S S S S S S    S S S S S S S S S S S S
---------------------|--------------------------|--------------------------|
---------------------|--------------------------|--------------------------|
--L\-----------------|--------------------------|--------------------------|
---------------------|--x-7-5-7-5---x-7-5-7-5---|--x-7-5-7-5-----------4-5-|
---------------------|--------------------------|------------6-----3-5-----|
---------------------|------------8-----------6-|--------------3-5---------|


  S S S S S S S S S S S S    S S S S S S S S S S S S
--------------------------|--------------------------|
--------------------------|--------------------------|
--------------------------|--------------------------|
--x-7-5-7-5---x-7-5-7-5---|--x-7-5-7-5-----------4-5-|
--------------------------|------------6-----3-5-----|
------------8-----------6-|--------------3-5---------|


  S S S S S S S S S S S S    S S S S S S S S S S S S
--------------------------|--------------------------|
--------------------------|--------------------------|
--------------------------|--------------------------|
--x-7-5-7-5---x-7-5-7-5---|--x-7-5-7-5-----------4-5-|
--------------------------|------------6-----3-5-----|
------------8-----------6-|--------------3-5---------|


  S S S S S S S S S S S S    S S S S S S S S S S S S
--------------------------|--------------------------|
--------------------------|--------------------------|
--------------------------|--------------------------|
--x-7-5-7-5---x-7-5-7-5---|--x-7-5-7-5-----------4-5-|
--------------------------|------------6-----3-5-----|
------------8-----------6-|--------------3-5---------|


  Q    E  E  E  E  Q    E  E  E  E     Q    E  E  E  E  Q    E  E  E  E
------------------------------------|------------------------------------|
------------------------------------|------------------------------------|
------------------------------------|------------------------------------|
------------------------------------|--4----4--4--4--4--2----2--2--2--2--|
--2----2--2--2--2--2----2--2--2--2--|--2----2--2--2--2--0----0--0--0--0--|
--0----0--0--0--0--0----0--0--0--0--|------------------------------------|


  Q    E  E  E  E  Q    E  E  E  E     Q    E  E  E  E  Q    E  E  E  E
------------------------------------|------------------------------------|
------------------------------------|------------------------------------|
------------------------------------|------------------------------------|
------------------------------------|--4----4--4--4--4--2----2--2--2--2--|
--2----2--2--2--2--2----2--2--2--2--|--2----2--2--2--2--0----0--0--0--0--|
--0----0--0--0--0--0----0--0--0--0--|------------------------------------|


  Q    E  E  E  E  Q    E  E  E  E     Q    E  E  E  E  Q    E  E  E  E
------------------------------------|------------------------------------|
------------------------------------|------------------------------------|
------------------------------------|------------------------------------|
--6----6--6--6--6--6----6--6--6--6--|--4----4--4--4--4--2----2--2--2--2--|
--4----4--4--4--4--4----4--4--4--4--|--2----2--2--2--2--0----0--0--0--0--|
------------------------------------|------------------------------------|


  Q    E  E  E  E  Q    E  E  E  E     Q    E  E  E  E  Q.     Q    E
------------------------------------|----------------------------------|
------------------------------------|----------------------------------|
------------------------------------|----------------------------------|
--6----6--6--6--6--6----6--6--6--6--|--2----2--2--2--2--4------4-------|
--4----4--4--4--4--4----4--4--4--4--|--0----0--0--0--0--2------2-------|
------------------------------------|----------------------------------|


  Q    Q    Q    Q       Q    Q    Q    Q       S S S S S S S S S S E
----------------------|----------------------|-------------------------|
----------------------|----------------------|-------------------------|
----------------------|----------------------|-------------------------|
--6----5----4----3----|--2-------------------|-------------------------|
--4----3----2----1----|--0----6----3----5----|-------------------------|
----------------------|-------4----1----3----|--3-2-0-2---2-1-0-1------|


  S S S S S S S S S S Q.        S S S S S S S S S S    S S S S S S S S S S
-----------------------------|----------------------|----------------------|
-----------------------------|----------------------|----------------------|
-----------------------------|----------------------|----------------------|
-----------------------------|----------------------|----------------------|
-----------------------------|----------------------|----------------------|
--3-2-0-2---2-1-0-1----------|--3-2-0-2---2-1-0-1---|--3-2-0-2---2-1-0-1---|


       S S S S S S S S S S S S S S Q.
----|-------------------------------------|
----|-------------------------------------|
----|-------------------------------------|
----|-------------------------------------|
----|-------------------------------------|
----|--3-2-0-2---2-1-0-3-2-3-2-3-2--------|


  S S S S S S S S S E.  S S S S S S S S    S S S S S S S S S S
----------------------------------------|----------------------|
----------------------------------------|----------------------|
----------------------------------------|----------------------|
----------------------------------------|----------------------|
----------------------------------------|--3-2-0-2---2-1-0-1-0-|
--3-2-0-2---2-1-0-1-----3-2-0-2---2-1-0-|----------------------|


  S S S S S S S S S S    S S S S S S S S S S    S S S S S S S S S S
----------------------|----------------------|----------------------|
----------------------|----------------------|----------------------|
----------------------|----------------------|----------------------|
----------------------|--5-4-2-4---4-3-2-3-2-|--5-4-2-4---4-3-2-3-2-|
--3-2-0-2---2-1-0-1-0-|----------------------|----------------------|
----------------------|----------------------|----------------------|


  E.  E.  Q    Q    E     E.  E.  Q    Q    E     E.  E.  Q    Q    E
-----------------------|-----------------------|-----------------------|
-----------------------|-----------------------|-----------------------|
-----------------------|-----------------------|--5---4---3----4----3--|
--5---4---3----4----3--|--5---4---3----4----3--|-----------------------|
--3---2---1----2----1--|--3---2---1----2----1--|--3---2---1----2----1--|
-----------------------|-----------------------|-----------------------|


  E.  E.  Q    Q    E     S S S  S S S S S S  S  S  S  S  S  S  S
-----------------------|------------------------------------------|
-----------------------|------------------------------------------|
--5---4---3----4----3--|------------------------------------------|
-----------------------|---------------------------14-12----------|
--3---2---1----2----1--|--------14-----------14-15-------15-14-15-|
-----------------------|--0-0-0----0-0-0-0-0----------------------|


  S S S  S S S S S  S  S  S  S  S  S  E
------------------------------------------|
------------------------------------------|
------------------------------------------|
------------------------------------------|
--------14---------14-15-12-15----15------|
--0-0-0----0-0-0-0-------------15----13~--|


  S S S  S S S S S S  S  S  S  S  S  S  S
------------------------------------------|
------------------------------------------|
------------------------------------------|
---------------------------14-12----------|
--------14-----------14-15-------15-14-15-|
--0-0-0----0-0-0-0-0----------------------|


  S S S  S S S S S  S  S  S  S  S  S  E       S S S S  S S S S H
------------------------------------------|-----------------------------|
------------------------------------------|-----------------------------|
------------------------------------------|-----------------------------|
------------------------------------------|-----------------------------|
--------14---------14-15-12-15----15------|--14-------14----------------|
--0-0-0----0-0-0-0-------------15----13~--|-----0-0-0----0--------------|


   S S S S  S S S S H            S S S S  S S S S H
-----------------------------|-----------------------------|
-----------------------------|-----------------------------|
-----------------------------|-----------------------------|
-----------------------------|-----------------------------|
--14-------14----------------|--14-------14----------------|
-----0-0-0----0--------------|-----0-0-0----0--------------|


  S S Q    S S E  S S E     S S Q    S S E  S S S S    S S Q    S S E  S S
-------------------------|--------------------------|----------------------|
-------------------------|--------------------------|----------------------|
-------------------------|--------------------------|----------------------|
-------------------------|--------------------------|----------------------|
------------------5-8-7--|--------------------------|------------------5-8-|
--0-7-6----0-7-6---------|--0-7-6----0-7-6--0-7-6---|--0-7-6----0-7-6------|


  S S Q    S S E  S S E     S S Q    S S E  S S    Q.     Q.
-------------------------|----------------------|----------------|
-------------------------|----------------------|----------------|
-------------------------|----------------------|----------------|
-------------------------|----------------------|--7-------------|
------------------5-8-7--|----------------------|--5------5------|
--0-7-6----0-7-6---------|--0-7-6----0-7-6--0-7-|---------3------|


  Q    Q    Q    Q       Q    E.  E.  E.  E.     Q    H.
----------------------|-----------------------|--------------------|----|
----------------------|-----------------------|--------------------|----|
----------------------|-----------------------|--------------------|----|
------------3---------|--5----7-----------8---|--7-----------------|----|
--3----5----1----5----|--3----5---5---7---6---|--5-----------------|----|
--1----3---------3----|-----------3---5-------|--------------------|----|


  E.  E.  E.  E.     Q.     Q.        Q    Q    Q    Q    Q
------------------|----------------|---------------------------|
------------------|----------------|---------------------------|
------------------|----------------|---------------------------|
--7-----------8---|--7-------------|------------3--------------|
--5---5---7---6---|--5------5------|--3----5----1----5----3----|
------3---5-------|---------3------|--1----3---------3----1----|


  W.                  W.                  W.                  W.
-------------------|-------------------|-------------------|-------------------|
-------------------|-------------------|-------------------|-------------------|
--9----------------|--L----------------|--L----------------|--L----------------|
--9----------------|--L----------------|--L----------------|--L----------------|
--7----------------|--L----------------|--L----------------|--L----------------|
-------------------|-------------------|-------------------|-------------------|


   Q     E   E   E   E   Q     E   E   E   E
----------------------------------------------|
----------------------------------------------|
----------------------------------------------|
----------------------------------------------|
--11----11--11--11--11--11----11--11--11--11--|
---9-----9---9---9---9---9-----9---9---9---9--|


  Q    E  E  E  E  Q    E  E  E  E
------------------------------------|
------------------------------------|
------------------------------------|
------------------------------------|
--7----7--7--7--7--9----9--9--9--9--|
--5----5--5--5--5--7----7--7--7--7--|


   Q     E   E   E   E   Q     E   E   E   E
----------------------------------------------|
----------------------------------------------|
----------------------------------------------|
----------------------------------------------|
--11----11--11--11--11--11----11--11--11--11--|
---9-----9---9---9---9---9-----9---9---9---9--|


  Q    E  E  E  E  Q    E  E  E  E
------------------------------------|
------------------------------------|
------------------------------------|
------------------------------------|
--7----7--7--7--7--9----9--9--9--9--|
--5----5--5--5--5--7----7--7--7--7--|


   |--3--|  |--3--|  |--3--|  |--3--|  |--3--|  |--3--|  |--3--|  |--3--|
   S  S  S  S  S  S  S  S  S  S  S  S  S  S  S  S  S  S  S  S  S  S  S  S
--------------------------------------------------------------------------|
--------------------------------------------------------------------------|
--------------------------------------------------------------------------|
--------------------------------------------------------12-12-12-12-12-12-|
--10-10-10-10-10-10-10-10-10-10-10-10-10-10-10-10-10-10-10-10-10-10-10-10-|
---8--8--8--8--8--8--8--8--8--8--8--8--7--7--7--7--7--7--8--8--8--8--8--8-|


   |--3--|  |--3--|  |--3--|  |--3--|  |--3--|  |--3--|  |--3--|  |--3--|
   S  S  S  S  S  S  S  S  S  S  S  S  S  S  S  S  S  S  S  S  S  S  S  S
--------------------------------------------------------------------------|
--------------------------------------------------------------------------|
--------------------------------------------------------------------------|
--------------------------------------------------------------------------|
--10-10-10-10-10-10-10-10-10-10-10-10-10-10-10-10-10-10-10-10-10-10-10-10-|
---8--8--8--8--8--8--8--8--8--8--8--8--8--8--8--8--8--8--7--7--7--7--7--7-|


  |-3-| |-3-| |-3-| |-3-| |-3-| |-3-| |-3-| |-3-|
  S S S S S S S S S S S S S S S S S S S S S S S S
--------------------------------------------------|
--------------------------------------------------|
--------------------------------------------------|
--------------------------------------------------|
--7-7-7-7-7-7-7-7-7-7-7-7-3-3-3-3-3-3-3-3-3-3-3-3-|
--5-5-5-5-5-5-5-5-5-5-5-5-1-1-1-1-1-1-1-1-1-1-1-1-|


  |-3-| |-3-| |-3-| |-3-| |-3-| |-3-| |-3-| |-3-|
  S S S S S S S S S S S S S S S S S S S S S S S S
--------------------------------------------------|
--------------------------------------------------|
--------------------------------------------------|
--7-7-7-7-7-7-7-7-7-7-7-7-------------------------|
--5-5-5-5-5-5-5-5-5-5-5-5-3-3-3-3-3-3-3-3-3-3-3-3-|
--------------------------1-1-1-1-1-1-1-1-1-1-1-1-|


   |--3--|  |--3--|  |--3--|  |--3--|  |--3--|  |--3--|  |--3--|  |--3--|
   S  S  S  S  S  S  S  S  S  S  S  S  S  S  S  S  S  S  S  S  S  S  S  S
--------------------------------------------------------------------------|
--------------------------------------------------------------------------|
--------------------------------------------------------------------------|
--------------------------------------------------------12-12-12-12-12-12-|
--10-10-10-10-10-10-10-10-10-10-10-10-10-10-10-10-10-10-10-10-10-10-10-10-|
---8--8--8--8--8--8--8--8--8--8--8--8--7--7--7--7--7--7--8--8--8--8--8--8-|


   |--3--|  |--3--|  |--3--|  |--3--|  |--3--|  |--3--|  |--3--|  |--3--|
   S  S  S  S  S  S  S  S  S  S  S  S  S  S  S  S  S  S  S  S  S  S  S  S
--------------------------------------------------------------------------|
--------------------------------------------------------------------------|
--------------------------------------------------------------------------|
--------------------------------------------------------------------------|
--10-10-10-10-10-10-10-10-10-10-10-10-10-10-10-10-10-10-10-10-10-10-10-10-|
---8--8--8--8--8--8--8--8--8--8--8--8--8--8--8--8--8--8--7--7--7--7--7--7-|


  |-3-| |-3-| |-3-| |-3-| |-3-| |-3-| |-3-| |-3-|
  S S S S S S S S S S S S S S S S S S S S S S S S
--------------------------------------------------|
--------------------------------------------------|
--------------------------------------------------|
--------------------------------------------------|
--7-7-7-7-7-7-7-7-7-7-7-7-3-3-3-3-3-3-3-3-3-3-3-3-|
--5-5-5-5-5-5-5-5-5-5-5-5-1-1-1-1-1-1-1-1-1-1-1-1-|


  |-3-| |-3-| |-3-| |-3-| |-3-| |-3-| |-3-| |-3-|
  S S S S S S S S S S S S S S S S S S S S S S S S
--------------------------------------------------|
--------------------------------------------------|
--------------------------------------------------|
--7-7-7-7-7-7-7-7-7-7-7-7-------------------------|
--5-5-5-5-5-5-5-5-5-5-5-5-3-3-3-3-3-3-3-3-3-3-3-3-|
--------------------------1-1-1-1-1-1-1-1-1-1-1-1-|


   |-3-|  |--3--|  |-3-|  |--3--|  |-3-|  |--3--|  |-3-|  |--3--|
   E   S  S  S  S  E   S  S  S  S  E   S  S  S  S  E   S  S  S  S
------------------------------------------------------------------|
------------------------------------------------------------------|
------------------------------------------------------------------|
--------------------------------------------------12--12-12-12-12-|
--10--10-10-10-10-10--10-10-10-10-10--10-10-10-10-10--10-10-10-10-|
---8---8--8--8--8--8---8--8--8--8--7---7--7--7--7--8---8--8--8--8-|


   |-3-|  |--3--|  |-3-|  |--3--|  |-3-|  |--3--|  |-3-|  |--3--|
   E   S  S  S  S  E   S  S  S  S  E   S  S  S  S  E   S  S  S  S
------------------------------------------------------------------|
------------------------------------------------------------------|
------------------------------------------------------------------|
------------------------------------------------------------------|
--10--10-10-10-10-10--10-10-10-10-10--10-10-10-10-10--10-10-10-10-|
---8---8--8--8--8--8---8--8--8--8--8---8--8--8--8--7---7--7--7--7-|


  |-3| |-3-| |-3| |-3-| |-3| |-3-| |-3| |-3-|
  E  S S S S E  S S S S E  S S S S E  S S S S
----------------------------------------------|
----------------------------------------------|
----------------------------------------------|
----------------------------------------------|
--7--7-7-7-7-7--7-7-7-7-3--3-3-3-3-3--3-3-3-3-|
--5--5-5-5-5-5--5-5-5-5-1--1-1-1-1-1--1-1-1-1-|


  |-3| |-3-| |-3| |-3-| |-3| |-3-| |-3| |-3-|
  E  S S S S E  S S S S E  S S S S E  S S S S
----------------------------------------------|
----------------------------------------------|
----------------------------------------------|
--7--7-7-7-7-7--7-7-7-7-----------------------|
--5--5-5-5-5-5--5-5-5-5-3--3-3-3-3-3--3-3-3-3-|
------------------------1--1-1-1-1-1--1-1-1-1-|


   |-3-|  |--3--|  |-3-|  |--3--|  |-3-|  |--3--|  |-3-|  |--3--|
   E   S  S  S  S  E   S  S  S  S  E   S  S  S  S  E   S  S  S  S
------------------------------------------------------------------|
------------------------------------------------------------------|
------------------------------------------------------------------|
--------------------------------------------------12--12-12-12-12-|
--10--10-10-10-10-10--10-10-10-10-10--10-10-10-10-10--10-10-10-10-|
---8---8--8--8--8--8---8--8--8--8--7---7--7--7--7--8---8--8--8--8-|


   |-3-|  |--3--|  |-3-|  |--3--|  |-3-|  |--3--|  |-3-|  |--3--|
   E   S  S  S  S  E   S  S  S  S  E   S  S  S  S  E   S  S  S  S
------------------------------------------------------------------|
------------------------------------------------------------------|
------------------------------------------------------------------|
------------------------------------------------------------------|
--10--10-10-10-10-10--10-10-10-10-10--10-10-10-10-10--10-10-10-10-|
---8---8--8--8--8--8---8--8--8--8--8---8--8--8--8--7---7--7--7--7-|


  |-3| |-3-| |-3| |-3-| |-3| |-3-| |-3| |-3-|
  E  S S S S E  S S S S E  S S S S E  S S S S
----------------------------------------------|
----------------------------------------------|
----------------------------------------------|
----------------------------------------------|
--7--7-7-7-7-7--7-7-7-7-3--3-3-3-3-3--3-3-3-3-|
--5--5-5-5-5-5--5-5-5-5-1--1-1-1-1-1--1-1-1-1-|


  |-3| |-3-| |-3| |-3-| |-3| |-3-| |-3| |-3-|
  E  S S S S E  S S S S E  S S S S E  S S S S
----------------------------------------------|
----------------------------------------------|
----------------------------------------------|
--7--7-7-7-7-7--7-7-7-7-----------------------|
--5--5-5-5-5-5--5-5-5-5-3--3-3-3-3-3--3-3-3-3-|
------------------------1--1-1-1-1-1--1-1-1-1-|


   |-3-|  |--3--|  |-3-|  |--3--|  |-3-|  |--3--|  |-3-|  |--3--|
   E   S  S  S  S  E   S  S  S  S  E   S  S  S  S  E   S  S  S  S
------------------------------------------------------------------|
------------------------------------------------------------------|
------------------------------------------------------------------|
--------------------------------------------------12--12-12-12-12-|
--10--10-10-10-10-10--10-10-10-10-10--10-10-10-10-10--10-10-10-10-|
---8---8--8--8--8--8---8--8--8--8--7---7--7--7--7--8---8--8--8--8-|


   |-3-|  |--3--|  |-3-|  |--3--|  |-3-|  |--3--|  |-3-|  |--3--|
   E   S  S  S  S  E   S  S  S  S  E   S  S  S  S  E   S  S  S  S
------------------------------------------------------------------|
------------------------------------------------------------------|
------------------------------------------------------------------|
------------------------------------------------------------------|
--10--10-10-10-10-10--10-10-10-10-10--10-10-10-10-10--10-10-10-10-|
---8---8--8--8--8--8---8--8--8--8--8---8--8--8--8--7---7--7--7--7-|


  |-3| |-3-| |-3| |-3-| |-3| |-3-| |-3| |-3-|
  E  S S S S E  S S S S E  S S S S E  S S S S
----------------------------------------------|
----------------------------------------------|
----------------------------------------------|
----------------------------------------------|
--7--7-7-7-7-7--7-7-7-7-3--3-3-3-3-3--3-3-3-3-|
--5--5-5-5-5-5--5-5-5-5-1--1-1-1-1-1--1-1-1-1-|


  |-3| |-3-| |-3| |-3-| |-3| |-3-| |-3| |-3-|
  E  S S S S E  S S S S E  S S S S E  S S S S
----------------------------------------------|
----------------------------------------------|
----------------------------------------------|
--7--7-7-7-7-7--7-7-7-7-----------------------|
--5--5-5-5-5-5--5-5-5-5-3--3-3-3-3-3--3-3-3-3-|
------------------------1--1-1-1-1-1--1-1-1-1-|


   |-3-|  |--3--|  |-3-|  |--3--|  |-3-|  |--3--|  |-3-|  |--3--|
   E   S  S  S  S  E   S  S  S  S  E   S  S  S  S  E   S  S  S  S
------------------------------------------------------------------|
------------------------------------------------------------------|
------------------------------------------------------------------|
--------------------------------------------------12--12-12-12-12-|
--10--10-10-10-10-10--10-10-10-10-10--10-10-10-10-10--10-10-10-10-|
---8---8--8--8--8--8---8--8--8--8--7---7--7--7--7--8---8--8--8--8-|


   |-3-|  |--3--|  |-3-|  |--3--|  |-3-|  |--3--|  |-3-|  |--3--|
   E   S  S  S  S  E   S  S  S  S  E   S  S  S  S  E   S  S  S  S
------------------------------------------------------------------|
------------------------------------------------------------------|
------------------------------------------------------------------|
------------------------------------------------------------------|
--10--10-10-10-10-10--10-10-10-10-10--10-10-10-10-10--10-10-10-10-|
---8---8--8--8--8--8---8--8--8--8--8---8--8--8--8--7---7--7--7--7-|


  |-3| |-3-| |-3| |-3-| |-3| |-3-| |-3| |-3-|
  E  S S S S E  S S S S E  S S S S E  S S S S
----------------------------------------------|----|
----------------------------------------------|----|
----------------------------------------------|----|
----------------------------------------------|----|
--7--7-7-7-7-7--7-7-7-7-3--3-3-3-3-3--3-3-3-3-|----|
--5--5-5-5-5-5--5-5-5-5-1--1-1-1-1-1--1-1-1-1-|----|


  S S E  S S S S E  S S E  S S    S S E  S S E  S S S S S S S S
-------------------------------|--------------------------------|
-------------------------------|--------------------------------|
-------------------------------|--------------------------------|
-------------------------------|--------------------------------|
--2-2----2-2-2-2----2-2----2-2-|--2-2----2-2----2-2-2-2-2-2-----|
--0-0----0-0-0-0----0-0----0-0-|--0-0----0-0----0-0-0-0-0-0-----|


  S S E  S S S S E  S S E  S S    S S E  S S E  S S S S S S S S
-------------------------------|--------------------------------|
-------------------------------|--------------------------------|
-------------------------------|--------------------------------|
-------------------------------|--------------------------------|
--2-2----2-2-2-2----2-2----2-2-|--2-2----2-2----2-2-2-2-2-2-----|
--0-0----0-0-0-0----0-0----0-0-|--0-0----0-0----0-0-0-0-0-0-----|


  S S E  S S S S E  S S E  S S    S S E  S S E  S S S S S S S S
-------------------------------|--------------------------------|
-------------------------------|--------------------------------|
-------------------------------|--------------------------------|
-------------------------------|--------------------------------|
--2-2----2-2-2-2----2-2----2-2-|--2-2----2-2----2-2-2-2-2-2-----|
--0-0----0-0-0-0----0-0----0-0-|--0-0----0-0----0-0-0-0-0-0-----|


  S S E  S S S S E  S S E  S S    S S E  S S E  S S S S S S S S
-------------------------------|--------------------------------|
-------------------------------|--------------------------------|
-------------------------------|--------------------------------|
-------------------------------|--------------------------------|
--2-2----2-2-2-2----2-2----2-2-|--2-2----2-2----2-2-2-2-2-2-----|
--0-0----0-0-0-0----0-0----0-0-|--0-0----0-0----0-0-0-0-0-0-----|


   S S E   S S  S  S E   S S E   S  S
--------------------------------------|
--------------------------------------|
------------------10---------------10-|
-------------9-12----------9----12----|
-----8----11------------11------------|
--10----------------------------------|


   S  S E   S  S E   S S  S  S  S  S S S
-----------------------------------------|
-----12---------------------------12-----|
--13----------10------------10-13--------|
-----------12----------9-12--------------|
--------------------11-------------------|
-----------------------------------------|


   S S E   S S  S  S E   S S E   S  S
--------------------------------------|
--------------------------------------|
------------------10---------------10-|
-------------9-12----------9----12----|
-----8----11------------11------------|
--10----------------------------------|


   S  S E   S  S E   S S  S  S  S  S S S
-----------------------------------------|----|----|----|----|
-----12---------------------------12-----|----|----|----|----|
--13----------10------------10-13--------|----|----|----|----|
-----------12----------9-12--------------|----|----|----|----|
--------------------11-------------------|----|----|----|----|
-----------------------------------------|----|----|----|----|


                    PM PM PM PM PM PM PM
  S S S S S S S E   S  S  S  S  S  S  S
-----------------------------------------|
-----------------------------------------|
-----------------------------------------|
-----------------------------------------|
--------------------2--2--2--2--2--2--2--|
--0-5-3-0-5-6-0-7s--0--0--0--0--0--0--0--|


                    PM PM PM PM PM PM PM
  S S S S S S S E   S  S  S  S  S  S  S     S S S S S S S S S S S S S S S S
-----------------------------------------|----------------------------------|
-----------------------------------------|----------------------------------|
-----------------------------------------|----------------------------------|
-----------------------------------------|----------------------------------|
--------------------2--2--2--2--2--2--2--|----------------------------------|
--0-5-3-0-5-6-0-7s--0--0--0--0--0--0--0--|--0-5-3-0-5-6-0-7-0-5-3-0-5-6-0-7-|


                    PM PM PM PM PM PM PM
  S S S S S S S E   S  S  S  S  S  S  S      S  S  S S  S  S S S H
-----------------------------------------|--------------------------------|
-----------------------------------------|--------------------------------|
-----------------------------------------|--------------------------------|
-----------------------------------------|--------------------------------|
--------------------2--2--2--2--2--2--2--|--13-12-10-0-10-12--------------|
--0-5-3-0-5-6-0-7s--0--0--0--0--0--0--0--|--------------------------------|


   S  S  S S  S  S S  S S  S  S S  S  S E
-------------------------------------------|
-------------------------------------------|
-------------------------------------------|
-------------------------------------------|
--13-12-10-0-10-12-0-13-0-12-10-0-10-12----|
----------------------------------------9--|


   S  S  S S  S  S S  S S  S  S S  S  S E
-------------------------------------------|
-------------------------------------------|
-------------------------------------------|
-------------------------------------------|
--13-12-10-0-10-12-0-13-0-12-10-0-10-12----|
----------------------------------------9--|


   S  S  S S  S  S S  S S  S  S S  S  S E
-------------------------------------------|
-------------------------------------------|
-------------------------------------------|
-------------------------------------------|
--13-12-10-0-10-12-0-13-0-12-10-0-10-12----|
----------------------------------------9--|


   S  S  S S  S  S  S  S  S  S  S  S  S  S  S  S
-------------------------------------------------|
-------------------------------------------------|
-------------------------------15-16-18-17-15----|
----------------------14-16-17----------------17-|
--13-12-10-0-13-15-16----------------------------|
-------------------------------------------------|


       PM      PM      PM      PM
   S S S   S S S   S S S   S S S   S S S S
-------------------------------------------|
-------------------------------------------|
-------------------------------------------|
-------------------------------------------|
--10-7-7--10-7-7--10-7-7--10-7-7--10-7-9-6-|
-------------------------------------------|


       PM      PM      PM      PM
   S S S   S S S   S S S   S S S   S S S S
-------------------------------------------|
-------------------------------------------|
-------------------------------------------|
-------------------------------------------|
--10-7-7--10-7-7--10-7-7--10-7-7--10-7-9-6-|
-------------------------------------------|


   S  S  S S  S  S S  S S  S  S S  S  S E
-------------------------------------------|
-------------------------------------------|
-------------------------------------------|
-------------------------------------------|
--13-12-10-0-10-12-0-13-0-12-10-0-10-12----|
----------------------------------------9--|


   S  S  S S  S  S  S  S  S  S  S  S  S  S  S  S
-------------------------------------------------|
-------------------------------------------------|
-------------------------------15-16-18-17-15----|
----------------------14-16-17----------------17-|
--13-12-10-0-13-15-16----------------------------|
-------------------------------------------------|


       PM      PM      PM      PM
   S S S   S S S   S S S   S S S   S S S S
-------------------------------------------|
-------------------------------------------|
-------------------------------------------|
-------------------------------------------|
--10-7-7--10-7-7--10-7-7--10-7-7--10-7-9-6-|
-------------------------------------------|


       PM      PM      PM      PM
   S S S   S S S   S S S   S S S   S S S S
-------------------------------------------|
-------------------------------------------|
-------------------------------------------|
-------------------------------------------|
--10-7-7--10-7-7--10-7-7--10-7-7--10-7-9-6-|
-------------------------------------------|


       PM      PM      PM      PM
   S S S   S S S   S S S   S S S   S S S S
-------------------------------------------|
-------------------------------------------|
-------------------------------------------|
-------------------------------------------|
--10-7-7--10-7-7--10-7-7--10-7-7--10-7-9-6-|
-------------------------------------------|


       PM      PM      PM      PM
   S S S   S S S   S S S   S S S   S S S S
-------------------------------------------|
-------------------------------------------|
-------------------------------------------|
-------------------------------------------|
--12-8-8--12-8-8--12-8-8--12-8-8--12-8-9-6-|
-------------------------------------------|


       PM      PM      PM      PM
   S S S   S S S   S S S   S S S   S S S S
-------------------------------------------|
-------------------------------------------|
-------------------------------------------|
-------------------------------------------|
--10-7-7--10-7-7--10-7-7--10-7-7--10-7-9-6-|
-------------------------------------------|


       PM      PM      PM      PM
   S S S   S S S   S S S   S S S   S S S S    E  E  E  E  E  E  E  E
-------------------------------------------|--------------------------|
-------------------------------------------|--------------------------|
-------------------------------------------|--------------------------|
-------------------------------------------|--------------------------|
--12-8-8--12-8-8--12-8-8--12-8-8--12-8-9-6-|--------------------------|
-------------------------------------------|--5-----0-----5-----0-----|


  E  E  E  E  E  E  E  E     E  E  E  E  E  E  E  E
--------------------------|--------------------------|
--------------------------|--------------------------|
--------------------------|--------------------------|
--------------------------|--------------------------|
--------------------------|--------------------------|
--5-----0-----5-----7-----|--8-----3-----8-----3-----|


                          PM PM PM PM
  E  E  E  E  E  E  E  E  S  S  S  S  S E.     E.  E.  Q    E.  E.  E.  E.  E
--------------------------------------------|----------------------------------|
--------------------------------------------|-------------------------------6--|
--------------------------------------------|-----------------------4---6------|
--------------------------------------------|---------------3---5--------------|
--------------------------5--5--5--5--2-----|------2---4-----------------------|
--8-----3-----8-----3-----3--3--3--3--0-----|--3-------------------------------|


  PM PM PM PM PM
  S  S  S  S  E     E.  E.  Q    E.  E.  E  E
-----------------|-----------------------------|
-----------------|-----------------------------|
-----------------|-----------------------4--6--|
-----------------|---------------3---5---------|
--5--5--5--5--2--|------2---4------------------|
--3--3--3--3--0--|--3--------------------------|


  PM PM PM PM PM    PM PM PM PM PM       PM PM PM PM PM
  S  S  S  S  E  E  S  S  S  S  E  E     S  S  S  S  E  E
--------------------------------------|--------------------|
--------------------------------------|--------------------|
--------------------------------------|--------------------|
--------------------------------------|--------------------|
--5--5--5--5--2--2--5--5--5--5--2--5--|--5--5--5--5--2-----|
--3--3--3--3--0--1--3--3--3--3--0--4--|--3--3--3--3--0-----|


                                     PM PM PM PM PM
  E.  E.  Q    E.  E.  E.  E.  E     S  S  S  S  E
----------------------------------|-----------------|
-------------------------------6--|-----------------|
-----------------------4---6------|-----------------|
---------------3---5--------------|-----------------|
------2---4-----------------------|--5--5--5--5--2--|
--3-------------------------------|--3--3--3--3--0--|


                                PM PM PM PM PM    PM PM PM PM PM
  E.  E.  Q    E.  E.  E  E     S  S  S  S  E  E  S  S  S  S  E  E
-----------------------------|--------------------------------------|
-----------------------------|--------------------------------------|
-----------------------4--6--|--------------------------------------|
---------------3---5---------|--------------------------------------|
------2---4------------------|--5--5--5--5--2--2--5--5--5--5--2--5--|
--3--------------------------|--3--3--3--3--0--1--3--3--3--3--0--4--|


  PM PM PM PM PM               PM PM PM PM PM PM
  S  S  S  S  Q    H           S  S  S  S  E  E  E  Q.
----------------------------|------------------------------|
----------------------------|------------------------------|
----------------------------|------------------------------|
----------------------------|------------------------------|
--5--5--5--5--2-------------|--5--5--5--5--2--2-----2------|
--3--3--3--3--0-------------|--3--3--3--3--0--0-----1------|


  PM PM PM PM PM               PM PM PM PM PM    PM PM PM PM PM
  S  S  S  S  Q    H           S  S  S  S  E  E  S  S  S  S  E  E
----------------------------|--------------------------------------||
----------------------------|--------------------------------------||
----------------------------|--------------------------------------||
----------------------------|--------------------------------------||
--5--5--5--5--2-------------|--5--5--5--5--2--2--5--5--5--5--2--5--||
--3--3--3--3--0-------------|--3--3--3--3--0--1--3--3--3--3--0--4--||
comments
We did not receive enough feedback on this tab! Please rate:
print report bad tab
1 2 3 4 5
4 comments total. Showing first comments.
0 reply
AestheticSelkie wrote on March 12 2008, 09:11 pm

Awesome. I love the ending to this song :]

0 reply
benjonotbanjo wrote on June 8 2008, 09:22 pm

you have it in the right tuning but on here it says drop C#

0 reply
icarus_complex wrote on August 6 2008, 07:28 pm

whats with the sweep picking riff in the 32nd notes? i think there are some notes missing cuz it doesnt exactly add up...

I want to post or [tab]
guest
You may want to rate the tab now too:
select rating
Please do not post tabs as comments. Select "correction" instead!