Oops, an error
Loading. Please wait.

Palms Read Bass Tab

ver2
ver2

Whole song

Interactive

More versions @911Tabs.com
822 views 3 this week
no commentswrite comment
1 2 3 4 5
please rate
Autoscroll
+/-
esc
set tempo
stop
Contributor
Difficulty
Tuning
intermediate
D# G# C# F# A# D#
Hey! There's an official Ultimate Guitar app which is ideal
for learning songs when you're away from computer. Get the app
WARNING: You are trying to view
                                    content from Ultimate-Guitar.com
                                    in an unauthorized application,
                                    which is prohibited.

                                    Please use an official Ultimate
                                    Guitar Tabs application for iPhone,
                                    iPad or Android to access legitimate
                                    chords, guitar, bass, and drum tabs
                                    from Ultimate-Guitar.com database.

                                    Type "ultimate guitar tabs" in Apple
                                    App Store's or Android Market's
                                    search to find the application.
I never saw a version with the bass tapping/arpeggios in them so I thought I would 
add it. This is the first tab online with them in so don't bother nicking it 
without my permission.
MAIN CREDIT BELONGS TO VERSION 2 ON UG; THIS HAS JUST BEEN EDITED.
Thankyou
- Martin



Title: Palms Read
Artist: Protest The Hero
Album: Fortress (2008)
Tempo = 136
Arif Mirabdolbaghi

Legend
L - tied note
x - dead note
h - hammer on/pull off
b - bend
s - slide
~ - vibrato
g - ghost note
> - accentuated note
t - trill
M - palm mute
. - staccato
P - popping (bass)
S - slapping (bass)
+ - tapping
W - wide vibrato
< - fade in
w - whammy bar
= - tremolo picking
v - brush up
^ - brush down
V - pick stroke up
n - pick stroke down

                                                        
F#|----------------------------------------------------|
C#|----------------------------------------------------|
G#|----------------------------------------------------|
D#|--0--0--0--0--0--0----------------------------------|
A#|----------------------------------------------------|

                                                     
----------------------------------------------------|
----------------------------------------------------|
----------------------------------------------------|
--0--0--0--0--0--0----------------------------------|
----------------------------------------------------|

                                                     
----------------------------------------------------|
----------------------------------------------------|
----------------------------------------------------|
--0--0--0--0--0--0----------------------------------|
----------------------------------------------------|

                                               
----------------------------------------------|
----------------------------------------------|
--------------------------------5--8--7-------|
--4--7--6-----------4--7--6-------------------|
----------------------------------------------|

                                               
----------------------------------------------|
----------------------------------------------|
----------------------------------------------|
--4--7--6-----------4--7--6-----4--7--6-------|
----------------------------------------------|

                                                     
----------------------------------------------------|
----------------------------------------------------|
----------------------------------------------------|
--0--0--0--0--0--0----------------------------------|
----------------------------------------------------|

                                                     
----------------------------------------------------|
----------------------------------------------------|
----------------------------------------------------|
--0--0--0--0--0--0----------------------------------|
----------------------------------------------------|

                                                     
----------------------------------------------------|
----------------------------------------------------|
----------------------------------------------------|
--0--0--0--0--0--0----------------------------------|
----------------------------------------------------|

                                               
----------------------------------------------|
----------------------------------------------|
--------------------------------5--8--7-------|
--4--7--6-----------4--7--6-------------------|
----------------------------------------------|

                                                                 
----------------------------------------------------------------|
----------------------------------------------------------------|
----------------------------------------------------------------|
--4--7--6-----------4--7--6-----4--7--6-------------------------|
----------------------------------------------------------------|

                                         
-----------9--------11-------8----------|
--------9-----9--------9--------9-------|
--7h-11----------11-------11-------11---|
----------------------------------------|
----------------------------------------|

                                         
-----------8-----------------6----------|
--------9-----9-----------7-----7-------|
--6h-9-----------9--4h-7-----------7----|
----------------------------------------|
----------------------------------------|

                                         
-----------9--------11-------8----------|
--------9-----9--------9--------9-------|
--7h-11----------11-------11-------11---|
----------------------------------------|
----------------------------------------|

                                         
-----------8-----------------6----------|
--------9-----9-----------7-----7-------|
--6h-9-----------9--4h-7-----------7----|
----------------------------------------|
----------------------------------------|

                                         
-----------6--------9--------4----------|
--------6-----6--------6--------6-------|
--4h-7-----------7--------7--------7----|
----------------------------------------|
----------------------------------------|

                                         
-----------8-----------------6----------|
--------9-----9-----------7-----7-------|
--6h-9-----------9--4h-7-----------7----|
----------------------------------------|
----------------------------------------|

                                         
-----------6--------9--------4----------|
--------6-----6--------6--------6-------|
--4h-7-----------7--------7--------7----|
----------------------------------------|
----------------------------------------|

                                         
-----------13----------------8----------|
--------14----14----------9-----9-------|
--11h14----------14-6h-9-----------9----|
----------------------------------------|
----------------------------------------|

                                                     
----------------------------------------------------|
----------------------------------------------------|
----------------------------------------------------|
--0-----------------0--0--------------0--0--0-------|
----------------------------------------------------|

                                                     
----------------------------------------------------|
----------------------------------------------------|
----------------------------------------------------|
--------0-----0--0-----0s-8--8--8--8--8-----8-------|
----------------------------------------------------|

                                                     
----------------------------------------------------|
----------------------------------------------------|
----------------------------------------------------|
--0-----------------0--0--------------0--0--0-------|
----------------------------------------------------|

                             
----------------------------|
--------------5-------------|
-----2--5--2-----2--5-------|
----------------------------|
----------------------------|

                                                     
----------------------------------------------------|
----------------------------------------------------|
----------------------------------------------------|
--0-----------------0--0--------------0--0--0-------|
----------------------------------------------------|

                                                     
----------------------------------------------------|
----------------------------------------------------|
----------------------------------------------------|
--------0-----0--0-----0s-8--8--8--8--8-----8-------|
----------------------------------------------------|

                                                     
----------------------------------------------------|
----------------------------------------------------|
----------------------------------------------------|
--0-----------------0--0--------------0--0--0-------|
----------------------------------------------------|

                             
----------------------------|
--------------5-------------|
-----2--5--2-----2--5-------|
----------------------------|
----------------------------|

                                                     
----------------------------------------------------|
----------------------------------------------------|
--5--5--5--5--5-----------5--5--5--5--5-------------|
----------------------------------------------------|
----------------------------------------------------|

                                                     
----------------------------------------------------|
----------------------------------------------------|
----------------------------------------------------|
--------5--5--5--5--5--5--6--6--6--6--8--8--8--8----|
----------------------------------------------------|

                                                     
----------------------------------------------------|
----------------------------------------------------|
--------5-----5-----5-----------5-----5-----5-------|
----------------------------------------------------|
----------------------------------------------------|

                                                                 
----------------------------------------------------------------|
----------------------------------------------------------------|
----------------------------------------------------------------|
--------5-----5-----5-----6-----6-----8-----8-------------------|
----------------------------------------------------------------|

_B___TAP ALL 12 AND 14___________A# DIMINISHED_TAP 10/11
--------10h14h10------------------------------------|
-----12----------12---------------------------------|
--12----------------12h8--------8h-11-------8h-11---|
--------------------------7h-10-------7h-10---------|
----------------------------------------------------|

                                                     
--------10h14-10----------------------10h13---------|
-----12----------12---------------------------------|
--12----------------12------------------------------|
-----------------------13h10h13---------------------|
----------------------------------------------------|

                                                     
--------10h14h10------------------------------------|
-----12----------12---------------------------------|
--12----------------12h8--------8h-11-------8h-11---|
--------------------------7h-10-------7h-10---------|
----------------------------------------------------|

                                                     
--------10h14-10----------------------10h13---------|
-----12----------12---------------------------------|
--12----------------12------------------------------|
-----------------------13h10h13---------------------|
----------------------------------------------------|

                                                     
----------------------------------------------------|
----------------------------------------------------|
----------------------------------------------------|
--0-----------------0--0--------------0--0--0-------|
----------------------------------------------------|

                                                     
----------------------------------------------------|
----------------------------------------------------|
----------------------------------------------------|
--------0-----0--0-----0s-8--8--8--8--8-----8-------|
----------------------------------------------------|

                                                     
----------------------------------------------------|
----------------------------------------------------|
----------------------------------------------------|
--0-----------------0--0--------------0--0--0-------|
----------------------------------------------------|

                             
----------------------------|
--------------5-------------|
-----2--5--2-----2--5-------|
----------------------------|
----------------------------|

                                                     
----------------------------------------------------|
----------------------------------------------------|
----------------------------------------------------|
--0-----------------0--0--------------0--0--0-------|
----------------------------------------------------|

                                                     
----------------------------------------------------|
----------------------------------------------------|
----------------------------------------------------|
--------0-----0--0-----0s-8--8--8--8--8-----8-------|
----------------------------------------------------|

                                                     
----------------------------------------------------|
----------------------------------------------------|
----------------------------------------------------|
--0-----------------0--0--------------0--0--0-------|
----------------------------------------------------|

                                              
----------------------------|----------------|
--------------5-------------|----------------|
-----2--5--2-----2--2L------|--2-------------|
----------------------------|----------------|
----------------------------|----------------|

                                         
----------------------------------------|
----------------------------------------|
----------------------------------------|
--5--5--5--5--5--5--5--5--5--5--5--5----|
----------------------------------------|

                                         
----------------------------------------|
--------------------------------4h-5----|
--------------------------3h-5----------|
--5--5--5--5--5--5--3h-5----------------|
----------------------------------------|

                                         
----------------------------------------|
----------------------------------------|
----------------------------------------|
--5--5--5--5--5--5--5--5--5--5--5--5----|
----------------------------------------|

                                         
----------------------------------------|
--------------------------------4h-5----|
--------------------------3h-5----------|
--5--5--5--5--5--5--3h-5----------------|
----------------------------------------|

                                         
----------------------------------------|
----------------------------------------|
----------------------------------------|
--5--5--5--5--5--5--5--5--5--5--5--5----|
----------------------------------------|

                                         
----------------------------------------|
--------------------------------4h-5----|
--------------------------3h-5----------|
--5--5--5--5--5--5--3h-5----------------|
----------------------------------------|

                                         
----------------------------------------|
----------------------------------------|
----------------------------------------|
--5--5--5--5--5--5--5--5--5--5--5--5----|
----------------------------------------|

                                         
----------------------------------------|
--------------------------------4h-5----|
--------------------------3h-5----------|
--5--5--5--5--5--5--3h-5----------------|
----------------------------------------|

                                         
-----------9--------11-------8----------|
--------9-----9--------9--------9-------|
--7h-11----------11-------11-------11---|
----------------------------------------|
----------------------------------------|

                                         
-----------8-----------------6----------|
--------9-----9-----------7-----7-------|
--6h-9-----------9--4h-7-----------7----|
----------------------------------------|
----------------------------------------|

                                         
-----------9--------11-------8----------|
--------9-----9--------9--------9-------|
--7h-11----------11-------11-------11---|
----------------------------------------|
----------------------------------------|

                                         
-----------8-----------------6----------|
--------9-----9-----------7-----7-------|
--6h-9-----------9--4h-7-----------7----|
----------------------------------------|
----------------------------------------|

                                         
-----------6--------9--------4----------|
--------6-----6--------6--------6-------|
--4h-7-----------7--------7--------7----|
----------------------------------------|
----------------------------------------|

                                         
-----------8-----------------6----------|
--------9-----9-----------7-----7-------|
--6h-9-----------9--4h-7-----------7----|
----------------------------------------|
----------------------------------------|

                                         
-----------6--------9--------4----------|
--------6-----6--------6--------6-------|
--4h-7-----------7--------7--------7----|
----------------------------------------|
----------------------------------------|

                                                                          
-----------13----------------8----------|----------|----------|----------|
--------14----14----------9-----9-------|----------|----------|----------|
--11h14----------14-6h-9-----------9----|--4--3----|--2--1----|----------|
----------------------------------------|----------|----------|--5--4----|
----------------------------------------|----------|----------|----------|

                                                    
----------|----------------------------------------|
----------|----------------------------------------|
----------|----------------------------------------|
--1--3----|--3--2--0--2-----2--1--0--1-------------|
----------|----------------------------------------|

                                                     
----------------------------------------------------|
----------------------------------------------------|
----------------------------------------------------|
--3--2--0--2-----2--1--0--1-------------------------|
----------------------------------------------------|

                                                                         
----------------------------------------------------------------|-------|
----------------------------------------------------------------|-------|
----------------------------------------------------------------|-------|
--3--2--0--2-----2--1--0--1-----3--2--0--2-----2--1--2--1-------|-------|
----------------------------------------------------------------|-------|

                                                                 
----------------------------------------------------------------|
----------------------------------------------------------------|
----------------------------------------------------------------|
--3--2--0--2-----2--1--0--3--2--3--2--3--2----------------------|
----------------------------------------------------------------|

                                                                 
----------------------------------------------------------------|
----------------------------------------------------------------|
----------------------------------------------------------------|
--3--2--0--2-----2--1--0--1-----------3--2--0--2-----2--1--0----|
----------------------------------------------------------------|

                                                                 
----------------------------------------------------------------|
----------------------------------------------------------------|
--3--3--3--2--2--2--1--1--0--0--3--3--3--2--2--2--1--1--0--0----|
----------------------------------------------------------------|
----------------------------------------------------------------|

                                                                 
----------------------------------------------------------------|
----------------------------------------------------------------|
--3--3--3--2--2--2--1--1--0--0--3--3--3--2--2--2--1--1--0--0----|
----------------------------------------------------------------|
----------------------------------------------------------------|

                                                     
----------------------------------------------------|
----------------------------------------------------|
--3--------2--------1-----------2-----------1-------|
----------------------------------------------------|
----------------------------------------------------|

                                                     
----------------------------------------------------|
----------------------------------------------------|
--3--------2--------1-----------2-----------1-------|
----------------------------------------------------|
----------------------------------------------------|

                                                     
----------------------------------------------------|
----------------------------------------------------|
--3--------2--------1-----------2-----------1-------|
----------------------------------------------------|
----------------------------------------------------|

                                                     
----------------------------------------------------|
----------------------------------------------------|
--3--------2--------1-----------2-----------1-------|
----------------------------------------------------|
----------------------------------------------------|

                                                     
----------------------------------------------------|
----------------------------------------------------|
----------------------------------------------------|
--0--0--0--0--0--0--0--0--12s-----------------------|
----------------------------------------------------|

                                                     
----------------------------------------------------|
----------------------------------------------------|
--------------------------------7-------------------|
--0-----------------------5h-7----------------------|
----------------------------------------------------|

                                                                
----------------------------------------------------|----------|
----------------------------------------------------|----------|
----------------------------------------------------|----------|
--0--0--0--0--0--0--0--0--12s-----------------------|--0-------|
----------------------------------------------------|-----17s--|

                                                     
----------------------------------------------------|
----------------------------------------------------|
----------------------------------------------------|
--0--0--0--0--0--0----------------------------------|
----------------------------------------------------|

                                                     
----------------------------------------------------|
----------------------------------------------------|
----------------------------------------------------|
--0--0--0--0--0--0----------------------------------|
----------------------------------------------------|

                                                     
----------------------------------------------------|
----------------------------------------------------|
----------------------------------------------------|
--0--0--0--0--0--0----------------------------------|
----------------------------------------------------|

                                               
----------------------------------------------|
----------------------------------------------|
--------------------------------5--8--7-------|
--4--7--6-----------4--7--6-------------------|
----------------------------------------------|

                                               
----------------------------------------------|
----------------------------------------------|
----------------------------------------------|
--4--7--6-----------4--7--6-----4--7--6-------|
----------------------------------------------|

                                         
----------------------------------------|
----------------------------------------|
--------------------------------5--8----|
--4--7--6-----------4--7--6-------------|
----------------------------------------|

                                               
----------------------------------------------|
----------------------------------------------|
--------------------------------5--8--7-------|
--4--7--6-----------4--7--6-------------------|
----------------------------------------------|

                                                                     
----------------------------------------|----------|----------------|
----------------------------------------|----------|----------------|
----------------------------------------|--5-------|--------1-------|
--4--7--6-----------4--7--6-----4--7----|-----3----|--1--3-----3----|
----------------------------------------|----------|----------------|

                                                     
----------------------------------------------------|
----------------------------------------------------|
--3-----------5--------------------------6----------|
-----------------------3--------5-------------------|
----------------------------------------------------|

  S  S  S  S  S  S  S  S  S  S  S  S  S  S  S  S     
--------5h-7--------5h-7--------5h-7--------5s-7----|
--5h-7--------5h-7--------5h-7--------5h-7----------|
----------------------------------------------------|
----------------------------------------------------|
----------------------------------------------------|

  S  S  P     S  S  P     S  S  P     S  S  P
--------7-----------10----------12----------14------|----------------|
--x-x---------x-x---------x--x--------x---x---------|----------------|
----------------------------------------------------|--5--------6----|
----------------------------------------------------|-----3--5-------|
----------------------------------------------------|----------------|


----------|-------------------|-----------9--------11-------8----------|
----------|-------------------|--------9-----9--------9--------9-------|
--5-------|--------1----------|--7h-11----------11-------11-------11---|
-----3----|--1--3-----3--1----|----------------------------------------|
----------|-------------------|----------------------------------------|


-----------8-----------------6----------|
--------9-----9-----------7-----7-------|
--6h-9-----------9--4h-7-----------7----|
----------------------------------------|
----------------------------------------|


-----------9--------11-------8----------|
--------9-----9--------9--------9-------|
--7h-11----------11-------11-------11---|
----------------------------------------|
----------------------------------------|


-----------8-----------------6----------|
--------9-----9-----------7-----7-------|
--6h-9-----------9--4h-7-----------7----|
----------------------------------------|
----------------------------------------|


-----------6--------9--------4----------|
--------6-----6--------6--------6-------|
--4h-7-----------7--------7--------7----|
----------------------------------------|
----------------------------------------|


-----------8-----------------6----------|
--------9-----9-----------7-----7-------|
--6h-9-----------9--4h-7-----------7----|
----------------------------------------|
----------------------------------------|


-----------6--------9--------4----------|
--------6-----6--------6--------6-------|
--4h-7-----------7--------7--------7----|
----------------------------------------|
----------------------------------------|


-----------13----------------8----------|
--------14----14----------9-----9-------|
--11h14----------14-6h-9-----------9----|
----------------------------------------|
----------------------------------------|


----------------------------------------|
----------------------------------------|
----------------------------------------|
--8--8--8--8--8--8--8--8--8--8--8--8----|
----------------------------------------|


----------------------------------------|
----------------------------------------|
----------------------------------------|
--8--8--8--8--8--8--8--8--8--8--8--8----|
----------------------------------------|


----------------------------------------|
----------------------------------------|
----------------------------------------|
--8--8--8--8--8--8--8--8--8--8--8--8----|
----------------------------------------|


----------------------------------------|
----------------------------------------|
----------------------------------------|
--8--8--8--8--8--8--7--7--7--7--7--7----|
----------------------------------------|


----------------------------------------|
----------------------------------------|
----------------------------------------|
--5--5--5--5--5--5--5--5--5--5--5--5----|
----------------------------------------|


----------------------------------------|
----------------------------------------|
----------------------------------------|
--1--1--1--1--1--1--1--1--1--1--1--1----|
----------------------------------------|


----------------------------------------|
----------------------------------------|
--5--5--5--5--5--5--5--5--5--5--5--5----|
----------------------------------------|
----------------------------------------|


----------------------------------------|
----------------------------------------|
----------------------------------------|
--1--1--1--1--1--1--1--1--1--1--1--1----|
----------------------------------------|


----------------------------------------|
----------------------------------------|
----------------------------------------|
--8--8--8--8--8--8--8--8--8--8--8--8----|
----------------------------------------|


----------------------------------------|
----------------------------------------|
----------------------------------------|
--8--8--8--8--8--8--8--8--8--8--8--8----|
----------------------------------------|


----------------------------------------|
----------------------------------------|
----------------------------------------|
--8--8--8--8--8--8--8--8--8--8--8--8----|
----------------------------------------|


----------------------------------------|
----------------------------------------|
----------------------------------------|
--8--8--8--8--8--8--7--7--7--7--7--7----|
----------------------------------------|


----------------------------------------|
----------------------------------------|
----------------------------------------|
--5--5--5--5--5--5--5--5--5--5--5--5----|
----------------------------------------|


----------------------------------------|
----------------------------------------|
----------------------------------------|
--1--1--1--1--1--1--1--1--1--1--1--1----|
----------------------------------------|


----------------------------------------|
----------------------------------------|
--5--5--5--5--5--5--5--5--5--5--5--5----|
----------------------------------------|
----------------------------------------|


----------------------------------------|-------|-------|-------|-------|
----------------------------------------|-------|-------|-------|-------|
----------------------------------------|-------|-------|-------|-------|
--1--1--1--1--1--1--1--1--1--1--1--1----|--8L---|--8L---|--8L---|--8----|
----------------------------------------|-------|-------|-------|-------|

comments
We did not receive enough feedback on this tab! Please rate:
print report bad tab
1 2 3 4 5
I want to post or [tab]
guest
You may want to rate the tab now too:
select rating
Please do not post tabs as comments. Select "correction" instead!