Oops, an error
Loading. Please wait.

Palms Read Tab

ver2
ver2

Whole song

More versions @911Tabs.com
24,737 views 18 this week
4 commentsread comments
1 2 3 4 5
excellent!
x 5
Autoscroll
+/-
esc
set tempo
stop
Contributor
Difficulty
advanced
WARNING: You are trying to view
                                    content from Ultimate-Guitar.com
                                    in an unauthorized application,
                                    which is prohibited.

                                    Please use an official Ultimate
                                    Guitar Tabs application for iPhone,
                                    iPad or Android to access legitimate
                                    chords, guitar, bass, and drum tabs
                                    from Ultimate-Guitar.com database.

                                    Type "ultimate guitar tabs" in Apple
                                    App Store's or Android Market's
                                    search to find the application.
                                  palms read                                    


                                                                protest the hero
Track 1



              PM PM PM PM PM PM                      
              S  S  S  S  S  S  S S S S S S S S S S  
D#||-------|----------------------------------------|
A#||-------|----------------------------------------|
F#||-------|----------------------------------------|
C#||-------|------------------------------2---------|
G#||-------|--2--2--2--2--2--2--0-2-3-2-0---0-3-2-0-|
D#||-------|--0--0--0--0--0--0----------------------|


  PM PM PM PM PM PM       PM        PM      
  S  S  S  S  S  S  S S S S  S S  S S  S S  
-------------------------------------------|
-------------------------------------------|
-------------------------------------------|
--------------------6-7-9-0--7-9-10-0--3-0-|
--2--2--2--2--2--2-------------------------|
--0--0--0--0--0--0-------------------------|


  PM PM PM PM PM PM                                                
  S  S  S  S  S  S  S S S S S S S S S S    S S Q    S S E  S S E   
----------------------------------------|-------------------------|
----------------------------------------|-------------------------|
----------------------------------------|-------------------------|
------------------------------2---------|-------------------------|
--2--2--2--2--2--2--0-2-3-2-0---0-3-2-0-|------------------5-8-7--|
--0--0--0--0--0--0----------------------|--0-7-6----0-7-6---------|


                             PM PM PM PM PM PM                      
  S S Q    S S E  S S S S    S  S  S  S  S  S  S S S S S S S S S S  
--------------------------|----------------------------------------|
--------------------------|----------------------------------------|
--------------------------|----------------------------------------|
--------------------------|------------------------------2---------|
--------------------------|--2--2--2--2--2--2--0-2-3-2-0---0-3-2-0-|
--0-7-6----0-7-6--0-7-6-0-|--0--0--0--0--0--0----------------------|


  PM PM PM PM PM PM       PM        PM      
  S  S  S  S  S  S  S S S S  S S  S S  S S  
-------------------------------------------|
-------------------------------------------|
-------------------------------------------|
--------------------6-7-9-0--7-9-10-0--3-0-|
--2--2--2--2--2--2-------------------------|
--0--0--0--0--0--0-------------------------|


  PM PM PM PM PM PM                                                
  S  S  S  S  S  S  S S S S S S S S S S    S S Q    S S E  S S E   
----------------------------------------|-------------------------|
----------------------------------------|-------------------------|
----------------------------------------|-------------------------|
------------------------------2---------|-------------------------|
--2--2--2--2--2--2--0-2-3-2-0---0-3-2-0-|------------------5-8-7--|
--0--0--0--0--0--0----------------------|--0-7-6----0-7-6---------|


  S S Q    S S E  S S S S            E  E  E  E  E  E   E   E   E  E   E  E   
--------------------------|-------|------------------------------------------|
--------------------------|-------|-----------------9--10--12--10--9---------|
--------------------------|-------|--------------9--------------------11--9--|
--------------------------|-------|-----6--7--9------------------------------|
--------------------------|-------|--7---------------------------------------|
--0-7-6----0-7-6--0-7-6---|-------|------------------------------------------|


  E   E   E  E   E  E   E   E  E   E  E  E   
--------------------------------------------|
-----12--10--9-------------10--9------------|
--8-------------11--9-------------11--9--8--|
-----------------------11-------------------|
--------------------------------------------|
--------------------------------------------|


   E   E   E   E   E   E   E   E   E   E   E   E   
--------------------------------------------------|
--------------------------------------12----------|
----------------------11--13--11--------------11--|
------------------14--------------14------14------|
------11--12--14----------------------------------|
--12----------------------------------------------|


   E   E  E  E   E   E   E   E   E   E   E   E   
--------------------------------------------14--|
-------------9--12--10------12------14----------|
------11--9-------------11------11------11------|
--13--------------------------------------------|
------------------------------------------------|
------------------------------------------------|


  E  E  E  E  E  E  E  E  E  E  E  E     E  E  E  E  E  E  E  E  E  E  E  E   
--------------------------------------|--------------------------------------|
-----------------5--7--9--7-----------|-----9--7--------------7--5-----------|
--------------6--------------9--8--6--|-----------9--8--6-----------8--6-----|
-----------6--------------------------|--9-----------------7--------------9--|
-----7--9-----------------------------|--------------------------------------|
--9-----------------------------------|--------------------------------------|


  E  E  E  E  E  E  E  E  E  E  E   E   
---------------------------------------|
-----------------5--7--9--5--7--9--12--|
--------------6------------------------|
--6--------6---------------------------|
-----7--9------------------------------|
---------------------------------------|


  E  E   E  E   E   E   Q       E   Q.      
--9---------9--12--14--14br----12----------|
-----9--12-------------------------13------|
-------------------------------------------|
-------------------------------------------|
-------------------------------------------|
-------------------------------------------|


   PM           PM PM         PM PM PM          PM PM PM                      
   S  S S S S S S  S  S S S S S  S  S  S    S S E  S  S  S S S S S S S S S S  
-----------------------------------------|-----------------------------------|
--12--L----------------------------------|-----------------------------------|
-----------------------------------------|-----------------------------------|
-----------------------------------------|-----------------------------------|
---2------------2--2----------2--2--2----|------2--2--2----------------------|
---0------------0--0----------0--0--0----|------0--0--0----------------------|


  PM       PM PM         PM PM PM    
  Q    S S S  S  S S S S S  S  S  S  
------------------------------------|
------------------------------------|
------------------------------------|
------------------------------------|
--2--------2--2----------2--2--2----|
--0--------0--0----------0--0--0----|


  S  S  S  S  S  S  S S S  S  S  S  S  S  S S  
----------------------------------------------|
--7h-8p-7s-5s-4h-5p-4-------------------------|
----------------------5-4h-5p-4s-2s-1h-2p-1---|
--------------------------------------------3-|
----------------------------------------------|
----------------------------------------------|


  PM           PM PM         PM PM PM          PM PM PM                      
  S  S S S S S S  S  S S S S S  S  S  S    S S E  S  S  S S S S S S S S S S  
----------------------------------------|-----------------------------------|
----------------------------------------|-----------------------------------|
----------------------------------------|-----------------------------------|
----------------------------------------|-----------------------------------|
--2------------2--2----------2--2--2----|------2--2--2----------------------|
--0------------0--0----------0--0--0----|------0--0--0----------------------|


  PM       PM PM         PM PM PM    
  Q    S S S  S  S S S S S  S  S  S  
------------------------------------|
------------------------------------|
------------------------------------|
------------------------------------|
--2--------2--2----------2--2--2----|
--0--------0--0----------0--0--0----|


  S  S  S  S  S  S  S S  S  S  S  S  S  S  S S  
--6h-7p-6s-3s-2h-3p-2--------------------------|
----------------------5p-4h-5p-4s-1s-0h-1p-0---|
---------------------------------------------2-|
-----------------------------------------------|
-----------------------------------------------|
-----------------------------------------------|


   S  S  S  S  S S S S  S  S  S  S  S S S S  
--17-13----------------13-------------------|
--------15----------------15----------------|
-----------14----------------14-------------|
--------------15----------------15----------|
-----------------------------------17-------|
--------------------------------------------|


  S S  S  S  S  S  S  S  S  S  S  S   S  S  S  S  
------12-------------------------13s-15-12-------|
---------13-------------------15-----------13----|
------------14-------------15-----------------12-|
---------------14-------15-----------------------|
------------------15-12--------------------------|
-------------------------------------------------|


  S S  S  S  S  S  S S S S  S  S  S  S  S S  
------17-13----------------13---------------|
------------15----------------15------------|
---------------14----------------14---------|
------------------15----------------15------|
---------------------------------------17---|
--------------------------------------------|


  S S  S  S  S  S  S  S   S  S  S  S  E   E   Q     
---------------------12s-15-12---------------------|
------------------13-----------13------------------|
---------------14-----------------14---------------|
------------14-----------------------14------------|
------12-15------------------------------15~-------|
---------------------------------------------------|


   S  S  S  S  S  S  S  S  S  S  S  S  S  S  S  S  
--------13-17-13----------------------------------|
-----15----------15-------------------------------|
--14----------------14-------------13----------13-|
-----------------------15-------15----------15----|
--------------------------14-17-------14-17-------|
--------------------------------------------------|


   S  S  S  S  S  S  S  S  S  S S S  S  S S S  
--------13-17-13--------------------13-16-----|
-----15----------15---------------------------|
--14----------------14------------------------|
-----------------------15-12-15---------------|
----------------------------------------------|
----------------------------------------------|


   S  S  S  S  S  S  S  S  S  S  S  S  S  S  S  S  
--------13-17-13----------------------------------|
-----15----------15-------------------------------|
--14----------------14-------------13----------13-|
-----------------------15-------15----------15----|
--------------------------14-17-------14-17-------|
--------------------------------------------------|


   S  S  S  S  S  S  S  S  S  S S S  S  S S S  
--------13-17-13--------------------13-16-----|
-----15----------15---------------------------|
--14----------------14------------------------|
-----------------------15-12-15---------------|
----------------------------------------------|
----------------------------------------------|


  PM           PM PM         PM PM PM          PM PM PM                      
  S  S S S S S S  S  S S S S S  S  S  S    S S E  S  S  S S S S S S S S S S  
----------------------------------------|-----------------------------------|
----------------------------------------|-----------------------------------|
----------------------------------------|-----------------------------------|
----------------------------------------|-----------------------------------|
--2------------2--2----------2--2--2----|------2--2--2----------------------|
--0------------0--0----------0--0--0----|------0--0--0----------------------|


  PM       PM PM         PM PM PM    
  Q    S S S  S  S S S S S  S  S  S  
------------------------------------|
------------------------------------|
------------------------------------|
------------------------------------|
--2--------2--2----------2--2--2----|
--0--------0--0----------0--0--0----|


  S  S  S  S  S  S  S S S  S  S  S  S  S  S S  
----------------------------------------------|
--7h-8p-7s-5s-4h-5p-4-------------------------|
----------------------5-4h-5p-4s-2s-1h-2p-1---|
--------------------------------------------3-|
----------------------------------------------|
----------------------------------------------|


  PM           PM PM         PM PM PM          PM PM PM                      
  S  S S S S S S  S  S S S S S  S  S  S    S S E  S  S  S S S S S S S S S S  
----------------------------------------|-----------------------------------|
----------------------------------------|-----------------------------------|
----------------------------------------|-----------------------------------|
----------------------------------------|-----------------------------------|
--2------------2--2----------2--2--2----|------2--2--2----------------------|
--0------------0--0----------0--0--0----|------0--0--0----------------------|


  PM       PM PM         PM PM PM                                               
  Q    S S S  S  S S S S S  S  S  S    S  S  S  S  S  S  S S  S  S  S  S  Q     
------------------------------------|--6h-7p-6s-3s-2h-3p-2---------------------|
------------------------------------|----------------------5p-4h-5p-4s-1h------|
------------------------------------|-------------------------------------4----|
------------------------------------|------------------------------------------|
--2--------2--2----------2--2--2----|------------------------------------------|
--0--------0--0----------0--0--0----|------------------------------------------|


  H.            Q       S S S S S S S S S S S S    S S S S S S S S S S S S  
---------------------|--------------------------|--------------------------|
---------------------|--------------------------|--------------------------|
--L\-----------------|--------------------------|--------------------------|
---------------------|--x-7-5-7-5---x-7-5-7-5---|--x-7-5-7-5-----------4-5-|
---------------------|--------------------------|------------6-----3-5-----|
---------------------|------------8-----------6-|--------------3-5---------|


  S S S S S S S S S S S S    S S S S S S S S S S S S  
--------------------------|--------------------------|
--------------------------|--------------------------|
--------------------------|--------------------------|
--x-7-5-7-5---x-7-5-7-5---|--x-7-5-7-5-----------4-5-|
--------------------------|------------6-----3-5-----|
------------8-----------6-|--------------3-5---------|


  S S S S S  S S S S S S S    S S S S S S S S S S S S  
---------------------------|--------------------------|
---------------------------|--------------------------|
----9-7-9-7------9-7-9-7---|----9-7-9-7-----------6-7-|
--x------------x-----------|--x---------8-----5-7-----|
------------10-----------8-|--------------5-7---------|
---------------------------|--------------------------|


  S S S S S  S S S S S S S    S S S S S S S S S S S S  
---------------------------|--------------------------|
---------------------------|--------------------------|
----9-7-9-7------9-7-9-7---|----9-7-9-7-----------6-7-|
--x------------x-----------|--x---------8-----5-7-----|
------------10-----------8-|--------------5-7---------|
---------------------------|--------------------------|


  E  E  E  E  E  E   E   E   E  E   E  E   
------------------------------------------|
-----------------9--10--12--10--9---------|
--------------9--------------------11--9--|
-----6--7--9------------------------------|
--7---------------------------------------|
------------------------------------------|


  E   E   E  E   E  E   E   E  E   E  E  E   
--------------------------------------------|
-----12--10--9-------------10--9------------|
--8-------------11--9-------------11--9--8--|
-----------------------11-------------------|
--------------------------------------------|
--------------------------------------------|


   E   E   E   E   E   E   E   E   E   E   E   E   
--------------------------------------------------|
--------------------------------------12----------|
----------------------11--13--11--------------11--|
------------------14--------------14------14------|
------11--12--14----------------------------------|
--12----------------------------------------------|


   E   E  E  E   E   E   E   E   E   E   E   E   
--------------------------------------------14--|
-------------9--12--10------12------14----------|
------11--9-------------11------11------11------|
--13--------------------------------------------|
------------------------------------------------|
------------------------------------------------|


  E  E  E  E  E  E  E  E  E  E  E  E     E  E  E  E  E  E  E  E  E  E  E  E   
--------------------------------------|--------------------------------------|
-----------------5--7--9--7-----------|-----9--7--------------7--5-----------|
--------------6--------------9--8--6--|-----------9--8--6-----------8--6-----|
-----------6--------------------------|--9-----------------7--------------9--|
-----7--9-----------------------------|--------------------------------------|
--9-----------------------------------|--------------------------------------|


  E  E  E   E   E  E   E   E   E  E  E   E   
--------------------------------------------|
--------------------------------------------|
-------------------9--11--13--11--9--8------|
---------------11-----------------------11--|
-----7--9--11-------------------------------|
--9-----------------------------------------|


  E   E   E  E   E   E   E   E   E   E   E   E   
------------------------------------11--12--14--|
------------------------10--12--14--------------|
-------------9--11--13--------------------------|
--9--11--13-------------------------------------|
------------------------------------------------|
------------------------------------------------|


   T  T  T  T  T  T  T  T  T  T  T  T  T  T  T  T  T  T  T  T  T  T  T  T  T  T 
---L--L-16-------------------15----------15-------------14-------------------13-
-----17----17-------------17----17----17----17-------15----15-------------15----
--18----------18-------------------18----------18-16----------16----------------
-----------------18----18----------------------------------------16----16-------
--------------------19----------------------------------------------17----------
--------------------------------------------------------------------------------


   T  T  T  T  T  T  T  T  T  T  T  T  T  T  T  T  T  T T  T  T  T  T  T  T  T T
--------12-------------------11----------11-------------8----------------------8
-----13----13-------------13----13----13----13-------10---10----------------12--
--14----------14-------------------14----------14-10---------10----------12-----
-----------------14----14---------------------------------------10----12--------
--------------------15---------------------------------------------12-----------
--------------------------------------------------------------------------------


  S S S S S S S S S S E     S S S S S S S S S S Q.        S S S S S S S S S S  
-------------------------|-----------------------------|----------------------|
-------------------------|-----------------------------|----------------------|
-------------------------|-----------------------------|----------------------|
-------------------------|-----------------------------|----------------------|
-------------------------|-----------------------------|----------------------|
--3-2-0-2---2-1-0-1------|--3-2-0-2---2-1-0-1----------|--3-2-0-2---2-1-0-1---|


  S S S S S S S S S S         S S S S S S S S S S S S S S Q.      
----------------------|----|-------------------------------------|
----------------------|----|-------------------------------------|
----------------------|----|-------------------------------------|
----------------------|----|-------------------------------------|
----------------------|----|-------------------------------------|
--3-2-0-2---2-1-0-1---|----|--3-2-0-2---2-1-0-3-2-3-2-3-2--------|


  S S S S S S S S S E.  S S S S S S S S    S S S S S S S S S S  
----------------------------------------|----------------------|
----------------------------------------|----------------------|
----------------------------------------|----------------------|
----------------------------------------|----------------------|
----------------------------------------|--3-2-0-2---2-1-0-1-0-|
--3-2-0-2---2-1-0-1-----3-2-0-2---2-1-0-|----------------------|


  S S S S S S S S S S    S S S S S S S S S S    S S S S S S S S S S  
----------------------|----------------------|----------------------|
----------------------|----------------------|----------------------|
----------------------|----------------------|----------------------|
----------------------|----------------------|----------------------|
--3-2-0-2---2-1-0-1-0-|--3-2-0-2---2-1-0-1-0-|--3-2-0-2---2-1-0-1-0-|
----------------------|----------------------|----------------------|


  E.  E.  Q    Q    E     E.  E.  Q    Q    E     E.  E.  Q    Q    E   
-----------------------|-----------------------|-----------------------|
-----------------------|-----------------------|-----------------------|
-----------------------|-----------------------|-----------------------|
--5---4---3----4----3--|--5---4---3----4----3--|-----------------------|
--3---2---1----2----1--|--3---2---1----2----1--|--3---2---1----2----1--|
-----------------------|-----------------------|--3---2---1----2----1--|


  E.  E.  Q    Q    E     S S S  S S S S S  S  S  S  S  S  S  S  S  
-----------------------|-------------------------------------------|
-----------------------|-------------------------------------------|
-----------------------|-------------------------------------------|
-----------------------|-------------------------------------------|
--3---2---1----2----1--|--------11---------11-12-14-15-14-12-11-12-|
--3---2---1----2----1--|--0-0-0----0-0-0-0-------------------------|


  S S S  S S S S S  S  S  S  S  S  S  E    
------------------------------------------|
------------------------------------------|
------------------------------------------|
------------------------------------------|
--------11---------11-12----12----12------|
--0-0-0----0-0-0-0-------13----12----10~--|


  S S S  S S S S S  S  S  S  S  S  S  S  S  
-------------------------------------------|
-------------------------------------------|
-------------------------------------------|
-------------------------------------------|
--------11---------11-12-14-15-14-12-11-12-|
--0-0-0----0-0-0-0-------------------------|


  S S S  S S S S S  S  S  S  S  S  S  E      S S S S S S S S H         
------------------------------------------|---------------------------|
------------------------------------------|---------------------------|
------------------------------------------|---------------------------|
------------------------------------------|---------------------------|
--------11---------11-12----12----12------|--2-2-2-2-2-2--------------|
--0-0-0----0-0-0-0-------13----12----10~--|--0-0-0-0-0-0--------------|


  S S S S S S S S H           S S S S S S S S H         
---------------------------|---------------------------|
---------------------------|---------------------------|
---------------------------|---------------------------|
---------------------------|---------------------------|
--2-2-2-2-2-2--------------|--2-2-2-2-2-2--------------|
--0-0-0-0-0-0--------------|--0-0-0-0-0-0--------------|


  S S Q    S S E  S S E     S S Q    S S E  S S S S    S S Q    S S E  S S  
-------------------------|--------------------------|----------------------|
-------------------------|--------------------------|----------------------|
-------------------------|--------------------------|----------------------|
-------------------------|--------------------------|----------------------|
------------------5-8-7--|--------------------------|------------------5-8-|
--0-7-6----0-7-6---------|--0-7-6----0-7-6--0-7-6---|--0-7-6----0-7-6------|


  S S Q    S S E  S S E     S S Q    S S E  S S    Q.     Q.      
-------------------------|----------------------|----------------|
-------------------------|----------------------|----------------|
-------------------------|----------------------|----------------|
-------------------------|----------------------|--7-------------|
------------------5-8-7--|----------------------|--5------5------|
--0-7-6----0-7-6---------|--0-7-6----0-7-6--0-7-|---------3------|


  Q    Q    Q    Q       Q    E.  E.  E.  E.     Q    H.                 
----------------------|-----------------------|--------------------|----|
----------------------|-----------------------|--------------------|----|
----------------------|-----------------------|--------------------|----|
------------3---------|--5----7-----------8---|--7-----------------|----|
--3----5----1----5----|--3----5---5---7---6---|--5-----------------|----|
--1----3---------3----|-----------3---5-------|--------------------|----|


  E.  E.  E.  E.     Q.     Q.        Q    Q    Q    Q    Q     
------------------|----------------|---------------------------|
------------------|----------------|---------------------------|
------------------|----------------|---------------------------|
--7-----------8---|--7-------------|------------3--------------|
--5---5---7---6---|--5------5------|--3----5----1----5----3----|
------3---5-------|---------3------|--1----3---------3----1----|


  E  E  E  Q.     E  E   E   Q.          H.             E   E   E  Q.      
-------------------------------------|-----------------12-----------------|
---------------------9--10--12~------|---L~----------------12--10--9------|
------------------9------------------|------------------------------------|
-----6--7--9-------------------------|------------------------------------|
--7----------------------------------|------------------------------------|
-------------------------------------|------------------------------------|


  E  E  E  Q.     E  E   E   Q.       
-------------------------------------|
---------------------9--10--12~------|
------------------9------------------|
-----6--7--9-------------------------|
--7----------------------------------|
-------------------------------------|


   Q.       E   E   E   E   E   E   Q.         E  E  E  Q.     E  E  E  Q.      
-----------12----------19--16---------------|----------------------------------|
---L~----------12--10----------17-----------|------------------------7--9------|
-----------------------------------16~------|------------------6--9------------|
--------------------------------------------|-----------6----------------------|
--------------------------------------------|-----7--9-------------------------|
--------------------------------------------|--9-------------------------------|


    Q     E   E   E   E   Q     H         
-----------------12--14------------------|
-------------12----------16--------------|
---------13--------------------16--------|
--/11------------------------------------|
-----------------------------------------|
-----------------------------------------|


  E  E  E   E  E  E   E  E  E   E  E   E   
------------------------------------------|
-------------------------9---------9--12--|
------------------9--11-----9--11---------|
---------------9--------------------------|
-----7--9--11-----------------------------|
--9---------------------------------------|


  E  E   E  E   E   E   H.              
--9---------9--12--14--14br------------|
-----9--12-----------------------------|
---------------------------------------|
---------------------------------------|
---------------------------------------|
---------------------------------------|


   |---3--|  |--3--|  |--3--|  |--3--|  |--3--|  |--3--|  |--3--|  |--3--|  
   S   S  S  S  S  S  S  S  S  S  S  S  S  S  S  S  S  S  S  S  S  S  S  S  
--12~--L--L--L--L--L--L--L--L--L--L--L-------------------------------------|
---------------------------------------------------------------------------|
---------------------------------------------------------------------------|
---------------------------------------------------------12-12-12-12-12-12-|
--10--10-10-10-10-10-10-10-10-10-10-10-10-10-10-10-10-10-10-10-10-10-10-10-|
---8---8--8--8--8--8--8--8--8--8--8--8--7--7--7--7--7--7--8--8--8--8--8--8-|


   |--3--|  |--3--|  |--3--|  |--3--|  |--3--|  |--3--|  |--3--|  |--3--|  
   S  S  S  S  S  S  S  S  S  S  S  S  S  S  S  S  S  S  S  S  S  S  S  S  
--------------------------------------------------------------------------|
--------------------------------------------------------------------------|
--------------------------------------------------------------------------|
--------------------------------------------------------------------------|
--10-10-10-10-10-10-10-10-10-10-10-10-10-10-10-10-10-10-10-10-10-10-10-10-|
---8--8--8--8--8--8--8--8--8--8--8--8--8--8--8--8--8--8--7--7--7--7--7--7-|


  |-3-| |-3-| |-3-| |-3-| |-3-| |-3-| |-3-| |-3-|  
  S S S S S S S S S S S S S S S S S S S S S S S S  
--------------------------------------------------|
--------------------------------------------------|
--------------------------------------------------|
--------------------------------------------------|
--7-7-7-7-7-7-7-7-7-7-7-7-3-3-3-3-3-3-3-3-3-3-3-3-|
--5-5-5-5-5-5-5-5-5-5-5-5-1-1-1-1-1-1-1-1-1-1-1-1-|


  |-3-| |-3-| |-3-| |-3-| |-3-| |-3-| |-3-| |-3-|  
  S S S S S S S S S S S S S S S S S S S S S S S S  
--------------------------------------------------|
--------------------------------------------------|
--------------------------------------------------|
--7-7-7-7-7-7-7-7-7-7-7-7-------------------------|
--5-5-5-5-5-5-5-5-5-5-5-5-3-3-3-3-3-3-3-3-3-3-3-3-|
--------------------------1-1-1-1-1-1-1-1-1-1-1-1-|


   |--3--|  |--3--|  |--3--|  |--3--|  |--3--|  |--3--|  |--3--|  |--3--|  
   S  S  S  S  S  S  S  S  S  S  S  S  S  S  S  S  S  S  S  S  S  S  S  S  
--------------------------------------------------------------------------|
--------------------------------------------------------------------------|
--------------------------------------------------------------------------|
--------------------------------------------------------12-12-12-12-12-12-|
--10-10-10-10-10-10-10-10-10-10-10-10-10-10-10-10-10-10-10-10-10-10-10-10-|
---8--8--8--8--8--8--8--8--8--8--8--8--7--7--7--7--7--7--8--8--8--8--8--8-|


   |--3--|  |--3--|  |--3--|  |--3--|  |--3--|  |--3--|  |--3--|  |--3--|  
   S  S  S  S  S  S  S  S  S  S  S  S  S  S  S  S  S  S  S  S  S  S  S  S  
--------------------------------------------------------------------------|
--------------------------------------------------------------------------|
--------------------------------------------------------------------------|
--------------------------------------------------------------------------|
--10-10-10-10-10-10-10-10-10-10-10-10-10-10-10-10-10-10-10-10-10-10-10-10-|
---8--8--8--8--8--8--8--8--8--8--8--8--8--8--8--8--8--8--7--7--7--7--7--7-|


  |-3-| |-3-| |-3-| |-3-| |-3-| |-3-| |-3-| |-3-|  
  S S S S S S S S S S S S S S S S S S S S S S S S  
--------------------------------------------------|
--------------------------------------------------|
--------------------------------------------------|
--------------------------------------------------|
--7-7-7-7-7-7-7-7-7-7-7-7-3-3-3-3-3-3-3-3-3-3-3-3-|
--5-5-5-5-5-5-5-5-5-5-5-5-1-1-1-1-1-1-1-1-1-1-1-1-|


  |-3-| |-3-| |-3-| |-3-| |-3-| |-3-| |-3-| |-3-|  
  S S S S S S S S S S S S S S S S S S S S S S S S  
--------------------------------------------------|
--------------------------------------------------|
--------------------------------------------------|
--7-7-7-7-7-7-7-7-7-7-7-7-------------------------|
--5-5-5-5-5-5-5-5-5-5-5-5-3-3-3-3-3-3-3-3-3-3-3-3-|
--------------------------1-1-1-1-1-1-1-1-1-1-1-1-|


   |-3-|  |--3--|  |-3-|  |--3--|  |-3-|  |--3--|  |-3-|  |--3--|  
   E   S  S  S  S  E   S  S  S  S  E   S  S  S  S  E   S  S  S  S  
------------------------------------------------------------------|
------------------------------------------------------------------|
------------------------------------------------------------------|
--------------------------------------------------12--12-12-12-12-|
--10--10-10-10-10-10--10-10-10-10-10--10-10-10-10-10--10-10-10-10-|
---8---8--8--8--8--8---8--8--8--8--7---7--7--7--7--8---8--8--8--8-|


   |-3-|  |--3--|  |-3-|  |--3--|  |-3-|  |--3--|  |-3-|  |--3--|  
   E   S  S  S  S  E   S  S  S  S  E   S  S  S  S  E   S  S  S  S  
------------------------------------------------------------------|
------------------------------------------------------------------|
------------------------------------------------------------------|
------------------------------------------------------------------|
--10--10-10-10-10-10--10-10-10-10-10--10-10-10-10-10--10-10-10-10-|
---8---8--8--8--8--8---8--8--8--8--8---8--8--8--8--7---7--7--7--7-|


  |-3| |-3-| |-3| |-3-| |-3| |-3-| |-3| |-3-|  
  E  S S S S E  S S S S E  S S S S E  S S S S  
----------------------------------------------|
----------------------------------------------|
----------------------------------------------|
----------------------------------------------|
--7--7-7-7-7-7--7-7-7-7-3--3-3-3-3-3--3-3-3-3-|
--5--5-5-5-5-5--5-5-5-5-1--1-1-1-1-1--1-1-1-1-|


  |-3| |-3-| |-3| |-3-| |-3| |-3-| |-3| |-3-|  
  E  S S S S E  S S S S E  S S S S E  S S S S  
----------------------------------------------|
----------------------------------------------|
----------------------------------------------|
--7--7-7-7-7-7--7-7-7-7-----------------------|
--5--5-5-5-5-5--5-5-5-5-3--3-3-3-3-3--3-3-3-3-|
------------------------1--1-1-1-1-1--1-1-1-1-|


   |-3-|  |--3--|  |-3-|  |--3--|  |-3-|  |--3--|  |-3-|  |--3--|  
   E   S  S  S  S  E   S  S  S  S  E   S  S  S  S  E   S  S  S  S  
------------------------------------------------------------------|
------------------------------------------------------------------|
------------------------------------------------------------------|
--------------------------------------------------12--12-12-12-12-|
--10--10-10-10-10-10--10-10-10-10-10--10-10-10-10-10--10-10-10-10-|
---8---8--8--8--8--8---8--8--8--8--7---7--7--7--7--8---8--8--8--8-|


   |-3-|  |--3--|  |-3-|  |--3--|  |-3-|  |--3--|  |-3-|  |--3--|  
   E   S  S  S  S  E   S  S  S  S  E   S  S  S  S  E   S  S  S  S  
------------------------------------------------------------------|
------------------------------------------------------------------|
------------------------------------------------------------------|
------------------------------------------------------------------|
--10--10-10-10-10-10--10-10-10-10-10--10-10-10-10-10--10-10-10-10-|
---8---8--8--8--8--8---8--8--8--8--8---8--8--8--8--7---7--7--7--7-|


  |-3| |-3-| |-3| |-3-| |-3| |-3-| |-3| |-3-|  
  E  S S S S E  S S S S E  S S S S E  S S S S  
----------------------------------------------|
----------------------------------------------|
----------------------------------------------|
----------------------------------------------|
--7--7-7-7-7-7--7-7-7-7-3--3-3-3-3-3--3-3-3-3-|
--5--5-5-5-5-5--5-5-5-5-1--1-1-1-1-1--1-1-1-1-|


  |-3| |-3-| |-3| |-3-| |-3| |-3-| |-3| |-3-|  
  E  S S S S E  S S S S E  S S S S E  S S S S  
----------------------------------------------|
----------------------------------------------|
----------------------------------------------|
--7--7-7-7-7-7--7-7-7-7-----------------------|
--5--5-5-5-5-5--5-5-5-5-3--3-3-3-3-3--3-3-3-3-|
------------------------1--1-1-1-1-1--1-1-1-1-|


   |-3-|  |--3--|  |-3-|  |--3--|  |-3-|  |--3--|  |-3-|  |--3--|  
   E   S  S  S  S  E   S  S  S  S  E   S  S  S  S  E   S  S  S  S  
------------------------------------------------------------------|
------------------------------------------------------------------|
------------------------------------------------------------------|
--------------------------------------------------12--12-12-12-12-|
--10--10-10-10-10-10--10-10-10-10-10--10-10-10-10-10--10-10-10-10-|
---8---8--8--8--8--8---8--8--8--8--7---7--7--7--7--8---8--8--8--8-|


   |-3-|  |--3--|  |-3-|  |--3--|  |-3-|  |--3--|  |-3-|  |--3--|  
   E   S  S  S  S  E   S  S  S  S  E   S  S  S  S  E   S  S  S  S  
------------------------------------------------------------------|
------------------------------------------------------------------|
------------------------------------------------------------------|
------------------------------------------------------------------|
--10--10-10-10-10-10--10-10-10-10-10--10-10-10-10-10--10-10-10-10-|
---8---8--8--8--8--8---8--8--8--8--8---8--8--8--8--7---7--7--7--7-|


  |-3| |-3-| |-3| |-3-| |-3| |-3-| |-3| |-3-|  
  E  S S S S E  S S S S E  S S S S E  S S S S  
----------------------------------------------|
----------------------------------------------|
----------------------------------------------|
----------------------------------------------|
--7--7-7-7-7-7--7-7-7-7-3--3-3-3-3-3--3-3-3-3-|
--5--5-5-5-5-5--5-5-5-5-1--1-1-1-1-1--1-1-1-1-|


  |-3| |-3-| |-3| |-3-| |-3| |-3-| |-3| |-3-|  
  E  S S S S E  S S S S E  S S S S E  S S S S  
----------------------------------------------|
----------------------------------------------|
----------------------------------------------|
--7--7-7-7-7-7--7-7-7-7-----------------------|
--5--5-5-5-5-5--5-5-5-5-3--3-3-3-3-3--3-3-3-3-|
------------------------1--1-1-1-1-1--1-1-1-1-|


   |-3-|  |--3--|  |-3-|  |--3--|  |-3-|  |--3--|  |-3-|  |--3--|  
   E   S  S  S  S  E   S  S  S  S  E   S  S  S  S  E   S  S  S  S  
------------------------------------------------------------------|
------------------------------------------------------------------|
------------------------------------------------------------------|
--------------------------------------------------12--12-12-12-12-|
--10--10-10-10-10-10--10-10-10-10-10--10-10-10-10-10--10-10-10-10-|
---8---8--8--8--8--8---8--8--8--8--7---7--7--7--7--8---8--8--8--8-|


   |-3-|  |--3--|  |-3-|  |--3--|  |-3-|  |--3--|  |-3-|  |--3--|  
   E   S  S  S  S  E   S  S  S  S  E   S  S  S  S  E   S  S  S  S  
------------------------------------------------------------------|
------------------------------------------------------------------|
------------------------------------------------------------------|
------------------------------------------------------------------|
--10--10-10-10-10-10--10-10-10-10-10--10-10-10-10-10--10-10-10-10-|
---8---8--8--8--8--8---8--8--8--8--8---8--8--8--8--7---7--7--7--7-|


  |-3| |-3-| |-3| |-3-| |-3| |-3-| |-3| |-3-|       
  E  S S S S E  S S S S E  S S S S E  S S S S       
----------------------------------------------|----|
----------------------------------------------|----|
----------------------------------------------|----|
----------------------------------------------|----|
--7--7-7-7-7-7--7-7-7-7-3--3-3-3-3-3--3-3-3-3-|----|
--5--5-5-5-5-5--5-5-5-5-1--1-1-1-1-1--1-1-1-1-|----|


  S S E  S S S S E  S S E  S S    S S E  S S E  S S S S S S S S  
-------------------------------|--------------------------------|
-------------------------------|--------------------------------|
-------------------------------|--------------------------------|
-------------------------------|--------------------------------|
--2-2----2-2-2-2----2-2----2-2-|--2-2----2-2----2-2-2-2-2-2-----|
--0-0----0-0-0-0----0-0----0-0-|--0-0----0-0----0-0-0-0-0-0-----|


  S S E  S S S S E  S S E  S S    S S E  S S E  S S S S S S S S  
-------------------------------|--------------------------------|
-------------------------------|--------------------------------|
-------------------------------|--------------------------------|
-------------------------------|--------------------------------|
--2-2----2-2-2-2----2-2----2-2-|--2-2----2-2----2-2-2-2-2-2-----|
--0-0----0-0-0-0----0-0----0-0-|--0-0----0-0----0-0-0-0-0-0-----|


  S S E  S S S S E  S S E  S S    S S E  S S E  S S S S S S S S  
-------------------------------|--------------------------------|
-------------------------------|--6-9-------------------6-9-----|
---------------7-------------7-|-----------7----------7---------|
-----------6-9--------6----9---|---------9--------6-9-----------|
----5----8----------8----------|----------------8---------------|
--7----------------------------|--------------------------------|


  S S E  S S S S E  S S E  S S     S S E  S S E  S S S S  S S S S  
-------------------------------|----------------------------------|
-------------------------------|-----9----------------------9-----|
---------------7-------------7-|--10--------7----------7-10-------|
-----------6-9--------6----9---|----------9--------6-9------------|
----5----8----------8----------|-----------------8----------------|
--7----------------------------|----------------------------------|


  S S E  S S S S E  S S E  S S     S S E  S S E  S S S S  S S S S  
-------------------------------|----------------------------------|
-------------------------------|-----9----------------------9-----|
---------------7-------------7-|--10--------7----------7-10-------|
-----------6-9--------6----9---|----------9--------6-9------------|
----5----8----------8----------|-----------------8----------------|
--7----------------------------|----------------------------------|


  S S E  S S S S E  S S E  S S     S S E  S S E  S S S S  S S S S  
-------------------------------|----------------------------------|
-------------------------------|-----9----------------------9-----|
---------------7-------------7-|--10--------7----------7-10-------|
-----------6-9--------6----9---|----------9--------6-9------------|
----5----8----------8----------|-----------------8----------------|
--7----------------------------|----------------------------------|


  S S S S S S S S S S S S S S S S    S S S S S S S S S S S S S S S S  
----------------------------------|----------------------------------|
----------------------------------|----------------------------------|
----------------------------------|----------------------------------|
----------------------------------|----------------------------------|
----------------------------------|----------------------------------|
--0-5-3-0-5-6-0-7-0-0-0-0-0-0-0-0-|--0-5-3-0-5-6-0-7-0-0-0-0-0-0-0-0-|


  S S S S S S S S S S S S S S S S    S S S S S S S S S S S S S S S S  
----------------------------------|----------------------------------|
----------------------------------|----------------------------------|
----------------------------------|----------------------------------|
----------------------------------|----------------------------------|
----------------------------------|----------------------------------|
--0-5-3-0-5-6-0-7-0-5-3-0-5-6-0-7-|--0-5-3-0-5-6-0-7-x-0-0-0-0-0-----|


                    PM PM PM PM PM PM PM  
  S S S S S S S E   S  S  S  S  S  S  S   
-----------------------------------------|
-----------------------------------------|
-----------------------------------------|
-----------------------------------------|
--------------------2--2--2--2--2--2--2--|
--0-5-3-0-5-6-0-7s--0--0--0--0--0--0--0--|


                    PM PM PM PM PM PM PM                                     
  S S S S S S S E   S  S  S  S  S  S  S     S S S S S S S S S S S S S S S S  
-----------------------------------------|----------------------------------|
-----------------------------------------|----------------------------------|
-----------------------------------------|----------------------------------|
-----------------------------------------|----------------------------------|
--------------------2--2--2--2--2--2--2--|----------------------------------|
--0-5-3-0-5-6-0-7s--0--0--0--0--0--0--0--|--0-5-3-0-5-6-0-7-0-5-3-0-5-6-0-7-|


                    PM PM PM PM PM PM PM                                   
  S S S S S S S E   S  S  S  S  S  S  S      S  S  S S  S  S S S H         
-----------------------------------------|--------------------------------|
-----------------------------------------|--------------------------------|
-----------------------------------------|--------------------------------|
-----------------------------------------|--------------------------------|
--------------------2--2--2--2--2--2--2--|--13-12-10-0-10-12--------------|
--0-5-3-0-5-6-0-7s--0--0--0--0--0--0--0--|--------------------------------|


   S  S  S S  S  S S  S S  S  S S  S  S E   
-------------------------------------------|
-------------------------------------------|
-------------------------------------------|
-------------------------------------------|
--13-12-10-0-10-12-0-13-0-12-10-0-10-12----|
----------------------------------------9--|


   S  S  S S  S  S S  S S  S  S S  S  S E   
-------------------------------------------|
-------------------------------------------|
-------------------------------------------|
-------------------------------------------|
--13-12-10-0-10-12-0-13-0-12-10-0-10-12----|
----------------------------------------9--|


   S  S  S S  S  S S  S S  S  S S  S  S E   
-------------------------------------------|
-------------------------------------------|
-------------------------------------------|
-------------------------------------------|
--13-12-10-0-10-12-0-13-0-12-10-0-10-12----|
----------------------------------------9--|


   S  S  S S  S  S  S  S  S  S  S  S  S  S  S  S  
-------------------------------------------------|
-------------------------------------------------|
-------------------------------12-14-15-14-12----|
----------------------11-13-14----------------14-|
--13-12-10-0-10-12-13----------------------------|
-------------------------------------------------|


       PM      PM      PM      PM           
   S S S   S S S   S S S   S S S   S S S S  
-------------------------------------------|
-------------------------------------------|
-------------------------------------------|
-------------------------------------------|
--10-7-7--10-7-7--10-7-7--10-7-7--10-7-9-6-|
-------------------------------------------|


       PM      PM      PM      PM           
   S S S   S S S   S S S   S S S   S S S S  
-------------------------------------------|
-------------------------------------------|
-------------------------------------------|
-------------------------------------------|
--10-7-7--10-7-7--10-7-7--10-7-7--10-7-9-6-|
-------------------------------------------|


   S  S  S S  S  S S  S S  S  S S  S  S E   
-------------------------------------------|
-------------------------------------------|
-------------------------------------------|
-------------------------------------------|
--13-12-10-0-10-12-0-13-0-12-10-0-10-12----|
----------------------------------------9--|


   S  S  S S  S  S  S  S  S  S  S  S  S  S  S  S  
-------------------------------------------------|
-------------------------------------------------|
-------------------------------12-14-15-14-12----|
----------------------11-13-14----------------14-|
--13-12-10-0-10-12-13----------------------------|
-------------------------------------------------|


       PM      PM      PM      PM           
   S S S   S S S   S S S   S S S   S S S S  
-------------------------------------------|
-------------------------------------------|
-------------------------------------------|
-------------------------------------------|
--10-7-7--10-7-7--10-7-7--10-7-7--10-7-9-6-|
-------------------------------------------|


       PM      PM      PM      PM           
   S S S   S S S   S S S   S S S   S S S S  
-------------------------------------------|
-------------------------------------------|
-------------------------------------------|
-------------------------------------------|
--10-7-7--10-7-7--10-7-7--10-7-7--10-7-9-6-|
-------------------------------------------|


         PM       PM       PM       PM            
   S  S  S  S  S  S  S  S  S  S  S  S  S  S  S S  
-------------------------------------------------|
-------------------------------------------------|
-------------------------------------------------|
-------------------------------------------------|
--14-10-10-14-10-10-14-10-10-14-10-10-14-10-12-9-|
-------------------------------------------------|


         PM       PM       PM       PM            
   S  S  S  S  S  S  S  S  S  S  S  S  S  S  S S  
-------------------------------------------------|
-------------------------------------------------|
-------------------------------------------------|
-------------------------------------------------|
--15-12-12-15-12-12-15-12-12-15-12-12-15-12-12-9-|
-------------------------------------------------|


         PM       PM       PM       PM            
   S  S  S  S  S  S  S  S  S  S  S  S  S  S  S S  
-------------------------------------------------|
-------------------------------------------------|
-------------------------------------------------|
-------------------------------------------------|
--14-10-10-14-10-10-14-10-10-14-10-10-14-10-12-9-|
-------------------------------------------------|


         PM       PM       PM       PM            
   S  S  S  S  S  S  S  S  S  S  S  S  S  S  S S  
-------------------------------------------------|
-------------------------------------------------|
-------------------------------------------------|
-------------------------------------------------|
--15-12-12-15-12-12-15-12-12-15-12-12-15-12-12-9-|
-------------------------------------------------|


   S  S  S  S E   S  S  S  S E   S E.   
--15-14-13-12--------------------------|
-----------------13-14-15-16----12-----|
---------------------------------------|
---------------------------------------|
---------------------------------------|
---------------------------------------|


   S  S  S  S  S  S  S  S  S  S  S  S  S  S  S  S  
--------------------------------------------------|
--------------------------------------------------|
--14-13-12-11-10-15-14-13-14-13-12-11-10-11-12-13-|
--------------------------------------------------|
--------------------------------------------------|
--------------------------------------------------|


   S  S  S  S E   S  S  S  S E   S E.   
--15-14-13-12--------------------------|
-----------------13-14-15-16----12-----|
---------------------------------------|
---------------------------------------|
---------------------------------------|
---------------------------------------|


                                         PM PM PM PM        
   S S  S S  S S  S S  S  S  S  S  Q     S  S  S  S  S E.   
--13-0-12-0------------------------------------------------|
------------15-0-12-0-13-15-12-13--------------------------|
----------------------------------12\----------------------|
-----------------------------------------------------------|
-----------------------------------------5--5--5--5--2-----|
-----------------------------------------3--3--3--3--0-----|


                                     PM PM PM PM PM  
  E.  E.  Q    E.  E.  E.  E.  E     S  S  S  S  E   
----------------------------------|-----------------|
-------------------------------6--|-----------------|
-----------------------4---6------|-----------------|
---------------3---5--------------|-----------------|
------2---4-----------------------|--5--5--5--5--2--|
--3-------------------------------|--3--3--3--3--0--|


                                PM PM PM PM PM    PM PM PM PM PM     
  E.  E.  Q    E.  E.  E  E     S  S  S  S  E  E  S  S  S  S  E  E   
-----------------------------|--------------------------------------|
-----------------------------|--------------------------------------|
-----------------------4--6--|--------------------------------------|
---------------3---5---------|--------------------------------------|
------2---4------------------|--5--5--5--5--2--2--5--5--5--5--2--5--|
--3--------------------------|--3--3--3--3--0--1--3--3--3--3--0--4--|


  PM PM PM PM PM                                            PM PM PM PM PM  
  S  S  S  S  E  E     E.  E.  Q    E.  E.  E.   E.   E     S  S  S  S  E   
--------------------|------------------------------------|-----------------|
--------------------|--------------------------------10--|-----------------|
--------------------|-----------------------8---10-------|-----------------|
--------------------|---------------7---9----------------|-----------------|
--5--5--5--5--2-----|------6---8-------------------------|--5--5--5--5--2--|
--3--3--3--3--0-----|--7---------------------------------|--3--3--3--3--0--|


                                 PM PM PM PM PM    PM PM PM PM PM     
  E.  E.  Q    E.  E.  E   E     S  S  S  S  E  E  S  S  S  S  E  E   
------------------------------|--------------------------------------|
------------------------------|--------------------------------------|
-----------------------8--10--|--------------------------------------|
---------------7---9----------|--------------------------------------|
------6---8-------------------|--5--5--5--5--2--2--5--5--5--5--2--5--|
--7---------------------------|--3--3--3--3--0--1--3--3--3--3--0--4--|


  PM PM PM PM PM               PM PM PM PM PM PM            
  S  S  S  S  Q    H           S  S  S  S  E  E  E  Q.      
----------------------------|------------------------------|
----------------------------|------------------------------|
----------------------------|------------------------------|
----------------------------|------------------------------|
--5--5--5--5--2-------------|--5--5--5--5--2--2-----2------|
--3--3--3--3--0-------------|--3--3--3--3--0--0-----1------|


  PM PM PM PM PM               PM PM PM PM PM    PM PM PM PM PM      
  S  S  S  S  Q    H           S  S  S  S  E  E  S  S  S  S  E  E    
----------------------------|--------------------------------------||
----------------------------|--------------------------------------||
----------------------------|--------------------------------------||
----------------------------|--------------------------------------||
--5--5--5--5--2-------------|--5--5--5--5--2--2--5--5--5--5--2--5--||
--3--3--3--3--0-------------|--3--3--3--3--0--1--3--3--3--3--0--4--||




Duration Legend
---------------
W - whole
H - half
Q - quarter
E - 8th
S - 16th
T - 32nd
X - 64th
. - note dotted
|-n-|  - n-tuplets


Tablature Legend
----------------
L - tied note
x - dead note
g - grace note
(n) - ghost note
> - accentuded note
NH - natural harmonic
AH - artificial harmonic
TH - tapped harmonic
SH - semi harmonic
PH - pitch harmonic
h - hammer on
p - pull off
b - bend
br - bendRelease
pb - preBend
pbr - preBendRelease
brb - bendReleaseBend
\n/ - tremolo bar dip
\n - tremolo bar dive
-/n - tremolo bar Release up
/n\ - tremolo bar inverted dip
/n - tremolo bar return
-\n - tremolo bar Release down
S - shift slide
s - legato slide
/ -  slide into from below or out of upwards
\ -  slide into from above or out of downwards
~ - vibrato
W - wide vibrato
tr - trill
TP - tremolo picking
T - tapping
S - slap
P - pop
< - fade in
^ - brush up
v - brush down
comments
print report bad tab
4 comments total. Showing first comments.
0 reply
icarus_complex wrote on August 5 2008, 11:44 am

im kinda confused about the fast sweep picking part with the 32nd notes. it doesnt really add up to the timing of the song...

-2 reply
thebearclan wrote on December 29 2008, 06:14 am

What the hell is a tied note???

+1 reply
guitarmaniak8 wrote on April 27 2010, 06:44 pm

A tied note is when you play a note, and then hold that same note for the length of the originally note and the one it's tied to. For example if I played a B (quarter note) and it was tied to another B (another quarter note), I would simply hold the B note for a half-note.
I know that's kind of confusing, but I hope that helped, lol.

Great tab btw. Awesome song, and a lot of fun to play.

I want to post or [tab]
guest
You may want to rate the tab now too:
select rating
Please do not post tabs as comments. Select "correction" instead!