Oops, an error
Loading. Please wait.

Palms Read Tab

ver3
ver3

Whole song

Interactive

More versions @911Tabs.com
1,900 views 3 this week
no commentswrite comment
1 2 3 4 5
excellent!
x 1
Autoscroll
+/-
esc
set tempo
stop
Contributor
Difficulty
Tuning
Tabbers playing skills
advanced
D# G# C# F# A# D#
advanced +
Hey! There's an official Ultimate Guitar app which is ideal
for learning songs when you're away from computer. Get the app
WARNING: You are trying to view
                                    content from Ultimate-Guitar.com
                                    in an unauthorized application,
                                    which is prohibited.

                                    Please use an official Ultimate
                                    Guitar Tabs application for iPhone,
                                    iPad or Android to access legitimate
                                    chords, guitar, bass, and drum tabs
                                    from Ultimate-Guitar.com database.

                                    Type "ultimate guitar tabs" in Apple
                                    App Store's or Android Market's
                                    search to find the application.
Artist: Protest the Hero
Song: Palms Read
Album: Fortress
Tabbed by soaum + Tom Delonge II + drawnacrol
Tuning: Half Step down Eb Ab Db Gb Bb Eb

Listen to the instrumental version of this song on youtube to hear/learn the song:
http://www.youtube.com/watch?v=e9FW_SeefTY

Intro:
|----------------------------------------------------|
|----------------------------------------------------|
|----------------------------------------------------|
|----------------------------------------------------|
|----------------------------------------------------|
|--12--0--0--12--0--0--5--7--8--7--5--0--5--8--7--5--|
  
|-----------------------------------------------------------|
|-----------------------------------------------------------|
|-----------------------------------------------------------|
|-----------------------------------------------------------|
|----------------------11--12--14--0--12--14--15--0---------|
|--12--0--0--12--0--0--------------------------------13--0--|
 
|----------------------------------------------------|
|----------------------------------------------------|
|----------------------------------------------------|
|----------------------------------------------------|
|----------------------------------------------------|
|--12--0--0--12--0--0--5--7--8--7--5--0--5--8--7--5--|

|---------------------------------|----------------------------------|
|---------------------------------|----------------------------------|
|---------------------------------|----------------------------------|
|---------------------------------|----------------------------------|
|-----------------------5--8--7---|----------------------------------|
|--4--7--6----4--7--6-------------|--4--7--6----4--7--6---4--7--6----|
 
Repeat Intro
 
Chorus:
|--------------------------------------|--------------------------------------|
|--------------------------------------|--------------------------------------|
|-----------------13-14-16-14-13-------|-----16-14-13----------14-13-11-------|
|--------------14----------------16-14-|--13----------16-14-11----------14-13-|
|-----11-12-14-------------------------|--------------------------------------|
|--12----------------------------------|--------------------------------------|
 
|--------------------------------------|-----------------------------------14-|
|-----------------------------12-------|--------------12-------12----14-------|
|-----------------11-13-11----------11-|-----11----13----14-11----11----11----|
|--------------14----------14----14----|--13----14----------------------------|
|-----11-12-14-------------------------|--------------------------------------|
|--12----------------------------------|--------------------------------------|
 
|----------------------------------|----------------------------------|
|----------------------------------|----------------------------------|
|---------------9-11-13-11-9-------|-----13-11-9----------11-9-8------|
|------------11--------------13-11-|--9----------13-11-7---------11-9-|
|-----7-9-11-----------------------|----------------------------------|
|--9-------------------------------|----------------------------------|
 
|----------------------------------|--------------12-14b(15)r14p12-----|
|-------------------------------12-|--14----12-14------------------13--|
|---------------9-11-13-9-11-13----|-----13----------------------------|
|------------11--------------------|-----------------------------------|
|-----7-9-11-----------------------|-----------------------------------|
|--9-------------------------------|-----------------------------------|
    
Verse:        
|----------------------------------|----------------------------|
|--12\-----------------------------|----------------------------|
|----------------------------------|----------------------------|
|------------2--2-------2--2--2----|-----2----2--2--------------|
|------------2--2-------2--2--2----|-----2----2--2--------------|
|------------0--0-------0--0--0----|-----0----0--0--------------|
             PM PM      PM PM PM         PM   PM PM   
                                                  
|-------------------------------|------------------------------------------|
|-------------------------------|--8h9p8-----------------------------------|
|-------------------------------|---------9-8h9p8--------------------------|
|--2------2--2-------2--2--2----|------------------10-9h10p9---------------|
|--2------2--2-------2--2--2----|-----------------------------11-10h11p10--|
|--0------0--0-------0--0--0----|------------------------------------------|
   PM     PM PM      PM PM PM  
            
|----------------------------------|----------------------------|
|----------------------------------|----------------------------|
|----------------------------------|----------------------------|
|--2---------2--2-------2--2--2----|-----2----2--2--------------|
|--2---------2--2-------2--2--2----|-----2----2--2--------------|
|--0---------0--0-------0--0--0----|-----0----0--0--------------|
   PM        PM PM      PM PM PM         PM   PM PM  

|-------------------------------|------------------------------------------|
|-------------------------------|--8h9p8-----------------------------------|
|-------------------------------|---------9-8h9p8--------------------------|
|--2------2--2-------2--2--2----|------------------10-9h10p9---------------|
|--2------2--2-------2--2--2----|-----------------------------11-10h11p10--|
|--0------0--0-------0--0--0----|------------------------------------------|
   PM     PM PM      PM PM PM  

Sweep Arpeggio Section:
|--17p13--------------13------------------|
|--------15--------------15---------------|
|-----------14--------------14------------|
|--------------15--------------15---------|
|---------------------------------17------|
|-----------------------------------------|
 
|--12p8-------------------10-13/15p12--------|
|-------10-------------11-------------13-----|
|----------9--------10-------------------12--|
|------------10------------------------------|
|---------------12---------------------------|
|--------------------------------------------|
 
|--17p13--------------13------------------|
|--------15--------------15---------------|
|-----------14--------------14------------|
|--------------15--------------15---------|
|---------------------------------17------|
|-----------------------------------------|
 
 
|--------------10-13/15p12----------------------|
|-----------11-------------13-------------------|
|--------10-------------------12----------------|
|-----12--------------------------14------------|
|--13------------------------------------15\----|
|-----------------------------------------------|
 
|--------13h17p13--------------------------------------|
|-----15----------15-----------------------------------|
|--14----------------14--------------------------------|
|------------------------15--------15h18--------15h18--|
|---------------------------14h17--------14h17---------|
|------------------------------------------------------|
  
|--------13h17p13---------------------13--16----|
|-----15----------15----------------------------|
|--14----------------14-------------------------|
|-----------------------15------15--------------|
|---------------------------17------------------|
|-----------------------------------------------|
 
|--------13h17p13--------------------------------------|
|-----15----------15-----------------------------------|
|--14----------------14--------------------------------|
|------------------------15--------15h18--------15h18--|
|---------------------------14h17--------14h17---------|
|------------------------------------------------------|
  
|--------13h17p13---------------------13--16----|
|-----15----------15----------------------------|
|--14----------------14-------------------------|
|-----------------------15------15--------------|
|---------------------------17------------------|
|-----------------------------------------------|

Verse 2:        
|----------------------------------|----------------------------|
|----------------------------------|----------------------------|
|----------------------------------|----------------------------|
|--2---------2--2-------2--2--2----|-----2----2--2--------------|
|--2---------2--2-------2--2--2----|-----2----2--2--------------|
|--0---------0--0-------0--0--0----|-----0----0--0--------------|
   PM        PM PM      PM PM PM         PM   PM PM 
                                                  
|-------------------------------|------------------------------------------|
|-------------------------------|--8h9p8-----------------------------------|
|-------------------------------|---------9-8h9p8--------------------------|
|--2------2--2-------2--2--2----|------------------10-9h10p9---------------|
|--2------2--2-------2--2--2----|-----------------------------11-10h11p10--|
|--0------0--0-------0--0--0----|------------------------------------------|
   PM     PM PM      PM PM PM  
            
|----------------------------------|----------------------------|
|----------------------------------|----------------------------|
|----------------------------------|----------------------------|
|--2---------2--2-------2--2--2----|-----2----2--2--------------|
|--2---------2--2-------2--2--2----|-----2----2--2--------------|
|--0---------0--0-------0--0--0----|-----0----0--0--------------|
   PM        PM PM      PM PM PM         PM   PM PM  

|-------------------------------|-------------------------------------|------------|
|-------------------------------|--8h9p8------------------------------|------------|
|-------------------------------|---------9-8h9p8---------------------|------------|
|--2------2--2-------2--2--2----|------------------10-9h10p9----------|------------|
|--2------2--2-------2--2--2----|-----------------------------11-10---|-(10)-\-\-\-|
|--0------0--0-------0--0--0----|-------------------------------------|------------|
   PM     PM PM      PM PM PM 

|--------------------------|----------------------------|
|--------------------------|----------------------------|
|--------------------------|----------------------------|
|--7p5h7p5-----7p5h7p5-----|--7p5h7p5-------------4h5---|
|--------------------------|-----------6------3h5-------|
|-----------8-----------6--|--------------3h5-----------|
 
|--------------------------|----------------------------|
|--------------------------|----------------------------|
|--------------------------|----------------------------|
|--7p5h7p5-----7p5h7p5-----|--7p5h7p5-------------4h5---|
|--------------------------|-----------6------3h5-------|
|-----------8-----------6--|--------------3h5-----------| 

|----------------------------|------------------------------|
|----------------------------|------------------------------|
|--9p7h9p7------9p7h9p7------|----9p7h9p7-------------6h7---|
|----------------------------|-------------8------5h7-------|
|-----------10------------8--|----------------5h7-----------|
|----------------------------|------------------------------|
 
|----------------------------|------------------------------|
|----------------------------|------------------------------|
|--9p7h9p7------9p7h9p7------|----9p7h9p7-------------6h7---|
|----------------------------|-------------8------5h7-------|
|-----------10------------8--|----------------5h7-----------|
|----------------------------|------------------------------|

Chorus:
|--------------------------------------|--------------------------------------|
|--------------------------------------|--------------------------------------|
|-----------------13-14-16-14-13-------|-----16-14-13----------14-13-11-------|
|--------------14----------------16-14-|--13----------16-14-11----------14-13-|
|-----11-12-14-------------------------|--------------------------------------|
|--12----------------------------------|--------------------------------------|
 
|--------------------------------------|-----------------------------------14-|
|-----------------------------12-------|--------------12-------12----14-------|
|-----------------11-13-11----------11-|-----11----13----14-11----11----11----|
|--------------14----------14----14----|--13----14----------------------------|
|-----11-12-14-------------------------|--------------------------------------|
|--12----------------------------------|--------------------------------------|
 
|----------------------------------|----------------------------------|
|----------------------------------|----------------------------------|
|---------------9-11-13-11-9-------|-----13-11-9----------11-9-8------|
|------------11--------------13-11-|--9----------13-11-7---------11-9-|
|-----7-9-11-----------------------|----------------------------------|
|--9-------------------------------|----------------------------------|
 
|----------------------------------|----------------------------11-12-14-|
|----------------------------------|-------------------10-12-14----------|
|---------------9-11-13-11-9-------|-----------9-11-13-------------------|
|------------11--------------13-11-|--9-11-13----------------------------|
|-----7-9-11-----------------------|-------------------------------------|
|--9-------------------------------|-------------------------------------|

Sweep Section:
|--------12h16p12-------------12h15p12------12h15p12------|
|-----14----------14--------------------14------------14--|
|--13-----------------13----------------------------------|
|-------------------------14------------------------------|
|---------------------------------------------------------|
|---------------------------------------------------------|
  
|--------10h14p10-------------10h13p10------10h13p10------|
|-----12----------12--------------------12------------12--|
|--11-----------------11----------------------------------|
|-------------------------12------------------------------|
|---------------------------------------------------------|
|---------------------------------------------------------|
 
|-------8h12p8------------8h11p8------8h11p8------|
|----10--------10-----------------10---------10---|
|--9---------------9------------------------------|
|---------------------10--------------------------|
|-------------------------------------------------|
|-------------------------------------------------|
  
|--------5h8p5----------------7h10p7-----------|
|-----6---------6-----------8---------8--------|
|--5---------------5-----7---------------7-----|
|---------------------7---------------------9--|
|----------------------------------------------|
|----------------------------------------------|

Breakdown/Intelude:
|------------------------|-----------------------------|
|------------------------|-----------------------------|
|------------------------|-----------------------------|
|------------------------|-----------------------------|
|------------------------|-----------------------------|
|--3-2-0-2---2-1-0-1-----|--3-2-0-2---2-1-0-1----------|
        
|------------------------------------------|-----------|
|------------------------------------------|-----------|
|------------------------------------------|-----------|
|------------------------------------------|-----------|
|------------------------------------------|-----------|
|--3-2-0-2---2-1-0-1---3-2-0-2---2-1-0-1---|-----------|
 
|-------------------------------------|
|-------------------------------------|
|-------------------------------------|
|-------------------------------------|
|-------------------------------------|
|--3-2-0-2---2-1-0-3-2-3-2-3-2--------|

|----------------------------------------|
|----------------------------------------|
|----------------------------------------|
|----------------------------------------|
|----------------------------------------|
|--3-2-0-2---2-1-0-1-----3-2-0-2---2-1-0-|
  
|------------------------------------------|
|------------------------------------------|
|------------------------------------------|
|------------------------------------------|
|--3-2-0-2-0-2-1-0-1-0-3-2-0-2-0-2-1-0-1-0-|
|------------------------------------------|

|------------------------------------------|
|------------------------------------------|
|------------------------------------------|
|------------------------------------------|
|--3-2-0-2-0-2-1-0-1-0-3-2-0-2-0-2-1-0-1-0-|
|------------------------------------------|

|--------------------------|---------------------------|
|--------------------------|---------------------------|
|--------------------------|---------------------------|
|--5----4----3----4----3---|---5----4----3----4----3---|
|--3----2----1----2----1---|---3----2----1----2----1---|
|--3----2----1----2----1---|---3----2----1----2----1---|

|--------------------------|---------------------------|
|--------------------------|---------------------------|
|--------------------------|---------------------------|
|--5----4----3----4----3---|---5----4----3----4----3---|
|--3----2----1----2----1---|---3----2----1----2----1---|
|--3----2----1----2----1---|---3----2----1----2----1---|
                          
|------------------------------------------------|
|------------------------------------------------|
|------------------------------------------------|
|---------------------------------14-------------|
|-----------14-----------14-15-17----17-15-14-15-|
|--0--0--0------0--0--0--------------------------|
   PM PM PM     PM PM PM 
   
|----------------------------------------------|
|----------------------------------------------|
|----------------------------------------------|
|----------------------------------------------|
|-----------14-----------14-15-12-15-10-15-----|
|--0--0--0------0--0--0--------------------13--|
   PM PM PM     PM PM PM 

|------------------------------------------------|
|------------------------------------------------|
|------------------------------------------------|
|---------------------------------14-------------|
|-----------14-----------14-15-17----17-15-14-15-|
|--0--0--0------0--0--0--------------------------|
   PM PM PM     PM PM PM 
   
|----------------------------------------------|
|----------------------------------------------|
|----------------------------------------------|
|----------------------------------------------|
|-----------14-----------14-15-12-15-10-15-----|
|--0--0--0------0--0--0--------------------13--|
   PM PM PM     PM PM PM 

|----------------------------|----------------------------|
|----------------------------|----------------------------|
|----------------------------|----------------------------|
|----------------------------|----------------------------|
|----------------------------|----------------------------|
|--12-0-0-12-0-0-------------|--12-0-0-12-0-0-------------|

|----------------------------|
|----------------------------|
|----------------------------|
|----------------------------|
|----------------------------|
|--12-0-0-12-0-0-------------|

|---------------------------|--------------------------|
|---------------------------|--------------------------|
|---------------------------|--------------------------|
|---------------------------|--------------------------|
|-------------------5-8-7---|--------------------------|
|--4-7-6----4-7-6-----------|--4-7-6---4-7-6---4-7-6---|
 
   
|------------------------|--------------------------|
|------------------------|--------------------------|
|------------------------|--------------------------|
|------------------------|--------------------------|
|------------------5-8---|------------------5-8-7---|
|--4-7-6----4-7-6--------|--4-7-6---4-7-6-----------|
 
|------------------------| 
|------------------------|
|------------------------|
|------------------------|
|------------------------|
|--4-7-6---4-7-6---4-7---|

|----------------|----------------------|--------------------------|
|----------------|----------------------|--------------------------|
|--7-------------|------------3---------|--5----7--------------8---|
|--7------5------|--3----5----3----5----|--5----7----5----7----8---|
|--5------5------|--3----5----1----5----|--3----5----5----7----6---|
|---------3------|--1----3---------3----|------------3----5--------|
 
|--------------------|-------------------|---------------------|
|--------------------|-------------------|---------------------|
|--7-----------------|-------------------|--7--------------8---|
|--7-----------------|-------------------|--7----5----7----8---|
|--5-----------------|-------------------|--5----5----7----6---|
|--------------------|-------------------|-------3----5--------|
 
|----------------|---------------------------|
|----------------|---------------------------|
|--7-------------|------------3--------------|
|--7------5------|--3----5----3----5----3----|
|--5------5------|--3----5----1----5----3----|
|---------3------|--1----3---------3----1----|
 
Chorus:
|---------------------------------|----------12--------------|
|---------------------------------|--------------------------|
|--------------------13-14-16~~---|--(16)~------16-14-13~~~--|
|-----------------14--------------|--------------------------|
|-----11-12-14--------------------|--------------------------|
|--12-----------------------------|--------------------------|
  
|---------------------------------|-----------------19p16----------|
|---------------------------------|--------17--------------17------|
|--------------------13-14-16~----|--(16)-----16--------------16---|
|-----------------14--------------|--------------19----------------|
|-----11-12-14--------------------|--------------------------------|
|--12-----------------------------|--------------------------------|
    
|----------------------------|--------------12-14-10/11-------|
|----------------------------|-----------12--------------12---|
|-----------------9-11-13----|--------13----------------------|
|--------------11------------|--9/11--------------------------|
|----7-9-11------------------|--------------------------------|
|--9-------------------------|--------------------------------|
      
|---------------------------------|--------------12-14-14b16r14--|
|------------------------------12-|--14----12-14-----------------|
|--------------9-11-13-9-11-13----|-----13-----------------------|
|-----------11--------------------|------------------------------|
|----7-9-11-----------------------|------------------------------|
|--9------------------------------|------------------------------|

Outro:
|--------------------------|--------------------------------|
|--(14/17)-----------------|--------------------------------|
|--9-9-9-9-9-9-9-9-9-9-9-9-|--10-10-10-10-10-10-7-7-7-7-7-7-|
|--x-x-x-x-x-x-x-x-x-x-x-x-|---x--x--x--x--x--x-x-x-x-x-x-x-|
|--7-7-7-7-7-7-7-7-7-7-7-7-|---8--8--8--8--8--8-5-5-5-5-5-5-|
|--------------------------|--------------------------------|

|--------------------------|--------------------------------|
|--------------------------|--------------------------------|
|--9-9-9-9-9-9-9-9-9-9-9-9-|--10-10-10-10-10-10-7-7-7-7-7-7-|
|--x-x-x-x-x-x-x-x-x-x-x-x-|---x--x--x--x--x--x-x-x-x-x-x-x-|
|--7-7-7-7-7-7-7-7-7-7-7-7-|---8--8--8--8--8--8-5-5-5-5-5-5-|
|--------------------------|--------------------------------|
  
|--------------------------|--------------------------------------|
|--------------------------|--------------------------------------|
|--5-5-5-5-5-5-5-5-5-5-5-5-|--12-12-12-12-12-12-14-14-14-14-14-14-|
|--x-x-x-x-x-x-x-x-x-x-x-x-|---x--x--x--x--x--x--x--x--x--x--x--x-|
|--3-3-3-3-3-3-3-3-3-3-3-3-|--10-10-10-10-10-10-12-12-12-12-12-12-|
|--------------------------|--------------------------------------|
 
|--------------------------|--------------------------------------|
|--------------------------|--------------------------------------|
|--5-5-5-5-5-5-5-5-5-5-5-5-|--14-14-14-14-14-14-10-10-10-10-10-10-|
|--x-x-x-x-x-x-x-x-x-x-x-x-|---x--x--x--x--x--x--x--x--x--x--x--x-|
|--3-3-3-3-3-3-3-3-3-3-3-3-|--12-12-12-12-12-12--8--8--8--8--8--8-|
|--------------------------|--------------------------------------|

|--------------------------|--------------------------------|
|--------------------------|--------------------------------|
|--9-9-9-9-9-9-9-9-9-9-9-9-|--10-10-10-10-10-10-7-7-7-7-7-7-|
|--x-x-x-x-x-x-x-x-x-x-x-x-|---x--x--x--x--x--x-x-x-x-x-x-x-|
|--7-7-7-7-7-7-7-7-7-7-7-7-|---8--8--8--8--8--8-5-5-5-5-5-5-|
|--------------------------|--------------------------------|

|--------------------------|--------------------------------|
|--------------------------|--------------------------------|
|--9-9-9-9-9-9-9-9-9-9-9-9-|--10-10-10-10-10-10-7-7-7-7-7-7-|
|--x-x-x-x-x-x-x-x-x-x-x-x-|---x--x--x--x--x--x-x-x-x-x-x-x-|
|--7-7-7-7-7-7-7-7-7-7-7-7-|---8--8--8--8--8--8-5-5-5-5-5-5-|
|--------------------------|--------------------------------|
  
|--------------------------|--------------------------------------|
|--------------------------|--------------------------------------|
|--5-5-5-5-5-5-5-5-5-5-5-5-|--12-12-12-12-12-12-14-14-14-14-14-14-|
|--x-x-x-x-x-x-x-x-x-x-x-x-|---x--x--x--x--x--x--x--x--x--x--x--x-|
|--3-3-3-3-3-3-3-3-3-3-3-3-|--10-10-10-10-10-10-12-12-12-12-12-12-|
|--------------------------|--------------------------------------|
 
|--------------------------|--------------------------------------|
|--------------------------|--------------------------------------|
|--5-5-5-5-5-5-5-5-5-5-5-5-|--14-14-14-14-14-14-10-10-10-10-10-10-|
|--x-x-x-x-x-x-x-x-x-x-x-x-|---x--x--x--x--x--x--x--x--x--x--x--x-|
|--3-3-3-3-3-3-3-3-3-3-3-3-|--12-12-12-12-12-12--8--8--8--8--8--8-|
|--------------------------|--------------------------------------|

|----------------||
|----------------||
|----------------||
|--10------------||
|--10------------||
|---8------------||
comments
We did not receive enough feedback on this tab! Please rate:
print report bad tab
1 2 3 4 5
I want to post or [tab]
guest
You may want to rate the tab now too:
select rating
Please do not post tabs as comments. Select "correction" instead!