Oops, an error
Loading. Please wait.

Plateful Of Our Dead Bass Tab

ver1
ver1

Whole song

Interactive

More versions @911Tabs.com
1,330 views 1 this week
no commentswrite comment
1 2 3 4 5
worth learning
x 2
Autoscroll
+/-
esc
set tempo
stop
Contributor
Difficulty
advanced
Hey! There's an official Ultimate Guitar app which is ideal
for learning songs when you're away from computer. Get the app
WARNING: You are trying to view
                                    content from Ultimate-Guitar.com
                                    in an unauthorized application,
                                    which is prohibited.

                                    Please use an official Ultimate
                                    Guitar Tabs application for iPhone,
                                    iPad or Android to access legitimate
                                    chords, guitar, bass, and drum tabs
                                    from Ultimate-Guitar.com database.

                                    Type "ultimate guitar tabs" in Apple
                                    App Store's or Android Market's
                                    search to find the application.
                            A Plateful of Our Dead                              


                                                                Protest the Hero
Arif Mirabdolbaghi



      W                   W                   W                 
F#||-------------------|-------------------|-------------------|
C#||-------------------|-------------------|-------------------|
G#||-------------------|-------------------|-------------------|
C#||-------------------|-------------------|-------------------|


  W                   S S S S S S S S S S S S S S S S  
-------------------|----------------------------------|
-------------------|----------------------------------|
-------------------|----------------------------------|
-------------------|--0---0---0-0---0---0-0-0---0-0-0-|


  S S S S S S S S S S S S S S S S    S S S S S S S S S S S S S S S S  
----------------------------------|----------------------------------|
----------------------------------|----------------------------------|
----------------------------------|----------------------------------|
--0---0---0-0---0---0-0-0---0-0-0-|--0---0---0-0---0---0-0-0---0-0-0-|


  S S S S S S S S S S S S S S S S    S Q    E  S  
----------------------------------|--------------|
----------------------------------|--------------|
----------------------------------|--------------|
--0---0---0-0---0---0-0-0---0-0-0-|--0-----------|


  E  S S E  S S S S S S S S S S    S E  E  E  S S E  S S E  S  
--------------------------------|-----------------------------|
--------------------------------|-----------------------------|
--------------------------------|--1-1--1--1--1-0-0--0--------|
--0--0-0-0--0-0-0-0-0-0-0-0-0-0-|----------------------1-1--1-|


  E  S S E  S S S S S S S S S S    S E  E  E  S S E  S S E  S  
--------------------------------|-----------------------------|
--------------------------------|-----------------------------|
--------------------------------|--1-1--1--1--1-0-0--0--------|
--0--0-0-0--0-0-0-0-0-0-0-0-0-0-|----------------------1-1--1-|


         |--3--| |--3--|                         
  S E  S S  S  S S  S  S E  E  Q       H         
------------------------------------|-----------|
------------------------------------|-----------|
---------5h-7h-8-5h-7h-8-8--7-------|-----------|
--0---------------------------------|--0--------|


  S S S S  S   S S  S  S S S  S S S E   
---------------------------------------|
------------------------------------8--|
----------12s-10---10s-8---8s-7--------|
--0-0-0-0--------0-------0------7-8----|


  S S S S  S   S S  S  S S S  S S  S  E   
-----------------------------------------|
-------------------------------------10--|
----------12s-10---10s-8---8s-7----------|
--0-0-0-0--------0-------0------8-10-----|


  S S S S  S   S S  S  S S S  S S S E     S S S S S S S S S S S S  
---------------------------------------|--------------------------|
------------------------------------8--|--------------------------|
----------12s-10---10s-8---8s-7--------|--------------------------|
--0-0-0-0--------0-------0------7-8----|--5---5---5-3---5---5---5-|


  S S S S  S   S S  S  S S S  S S S E   
---------------------------------------|
------------------------------------8--|
----------12s-10---10s-8---8s-7--------|
--0-0-0-0--------0-------0------7-8----|


  S S S S  S   S S  S  S S S  S S  S  E   
-----------------------------------------|
-------------------------------------10--|
----------12s-10---10s-8---8s-7----------|
--0-0-0-0--------0-------0------8-10-----|


  S S S S  S   S S  S  S S S  S S S E     S S S S S S S S S S S S  
---------------------------------------|--------------------------|
------------------------------------8--|--------------------------|
----------12s-10---10s-8---8s-7--------|--------------------------|
--0-0-0-0--------0-------0------7-8----|--5---5---5-3---5---5---5-|


  Q.     Q.     Q       Q.     Q.     Q       Q.     Q.     Q     
---------------------|---------------------|---------------------|
---------------------|---------------------|---------------------|
---------------------|---------3-----------|---------------------|
--5------3------0----|--1-------------0----|--5------3------0----|


  S H        Q    E  S    S S S S S S S S S S Q.      
-----------------------|-----------------------------|
-----------------------|-----------------------------|
-----------------------|-----------------------------|
--0--------------------|--0---0---0-0---0---0-8------|


  S S S S S S S S S S  Q.        S S S S S S S S S S Q.      
------------------------------|-----------------------------|
------------------------------|-----------------------------|
------------------------------|-----------------------------|
--0---0---0-0---0---0-10------|--0---0---0-0---0---0-8------|


  S S S S S S S S S S S S    S E  S E  S S H           S E  S E  S S H         
--------------------------|-------------------------|-------------------------|
--------------------------|-------------------------|-------------------------|
--------------------------|-------------------------|-------------------------|
--0---0---0-0---0---0---0-|--0----0----0-0----------|--0----0----0-0----------|


  S E  S E  S S H           S H        Q    E  S    S E  S E  S S  H          
-------------------------|-----------------------|---------------------------|
-------------------------|-----------------------|---------------------------|
-------------------------|-----------------------|---------------------------|
--0----0----0-0----------|--0--------------------|--0----0----0---12S--------|


  S E  S E  S S  H            S S S S S S S S  H          
---------------------------|-----------------------------|
---------------------------|-----------------------------|
---------------------------|-----------------------------|
--0----0----0---12S--------|--0-0-0-0-0-0-0-0-12S--------|


  S H        Q    E  S    Q    E  S E  S S E  S S S  
-----------------------|----------------------------|
-----------------------|----------------------------|
-----------------------|--6----6--6-6--6-6-6--6-6-6-|
--0--------------------|----------------------------|


  Q    E  S E  S S E  S S S    Q    E  S E  S S E  S S S  
----------------------------|----------------------------|
----------------------------|----------------------------|
--6----6--6-6--6-6-6--6-6-6-|--5----5--5-5--5-5-5--5-5-5-|
----------------------------|----------------------------|


  S S S S S S S S S S S S S S S S    Q    E  S E  S S E  S S S  
----------------------------------|----------------------------|
----------------------------------|----------------------------|
----------------------------------|--6----6--6-6--6-6-6--6-6-6-|
--0-0-0-0-0-0-0-0-0-0-0-0-0-0-0-0-|----------------------------|


  Q    E  S E  S S E  S S S    E  E  S S S E  S S E  S S S  
----------------------------|------------------------------|
----------------------------|------------------------------|
--6----6--6-6--6-6-6--6-6-6-|------------------------------|
----------------------------|--8--8--8-8-8-7--7-7-7--7-7-7-|


  E  E  S S S E  S S E  S S S    E  E  S S S E  S S E  S S S  
------------------------------|------------------------------|
------------------------------|------------------------------|
------------------------------|------------------------------|
--5--5--5-5-5-4--4-4-4--4-4-4-|--5--5--5-5-5-5--5-5-5--5-5-5-|


  E  E  S S S E  S S E  S S S    S S E  S S E  S S E  S S S S  
------------------------------|-------------------------------|
------------------------------|-------------------------------|
------------------------------|-------------------------------|
--1--1--1-1-1-1--1-1-1--1-1-3-|--L-3-3--3-3-3--3-3-3--3-3-3-3-|


  S S S S Q    S S S S Q       S S  S  S S  S S S S S  S  S S  S S S  
----------------------------|----------------------------------------|
----------------------------|----7-10----8-11---5---7-10----8-11---5-|
----------------------------|--8------10------7---8------10------7---|
--0-0-0-0------0-0-0-0------|----------------------------------------|


  E  E  S S S E  S S E  S S S    E  E  S S S E  S S E  S S S  
------------------------------|------------------------------|
------------------------------|------------------------------|
------------------------------|------------------------------|
--5--5--5-5-5-5--5-5-5--5-5-5-|--1--1--1-1-1-1--1-1-1--1-1-3-|


  S S E  S S E  S S E  S S S S    S S S S Q    S S S S Q       H        Q     
-------------------------------|----------------------------|----------------|
-------------------------------|----------------------------|----------------|
-------------------------------|----------------------------|----------------|
--L-3-3--3-3-3--3-3-3--3-3-3-3-|--0-0-0-0------0-0-0-0------|----------------|


   *Sounds like the notes are all meshed together                               
   S                                              S  S  S  S   S  S   S  S  S  S
-----------------------------------------------------------------14p-12-12-12---
------------------------------------------------------------------------------10
--14p--------------------------------------------12-12-12-12h-15----------------
--------------------------------------------------------------------------------


   S   S  S   S  S   S  S   S  S  S  S  S  
------------------------------------------|
--14p-12---------------12p-10----12-10----|
---------15p-14-12p-10--------12-------12-|
------------------------------------------|


   S   S  S  S  S  S  S   S  S  S  S   S  
------------------12-14p-12-12-12--L---L-|
----------------------------------10h-12-|
--14p-12-12-12-12------------------------|
-----------------------------------------|


   T  T  T  T  T  T  T  T  T  T  T  T  
--------------------------------------|
--------------------------------------|
--------------------------------------|
--10-10-10-10-10-10-10-10-10-10-10-10-|


   S   S  S  S  S   S  S   S  S  S  S   S  
----------------------14p-12-12-12--------|
-----------------------------------10h-12-|
--14p-12-12-12-12h-15---------------------|
------------------------------------------|


   S   S  S   S  S   S  S   S  S  S  S  S  
------------------------------------------|
--14p-12---------------12p-10----12-10----|
---------15p-14-12p-10--------12-------12-|
------------------------------------------|


   S   S  S  S  S  S  S   S  S  S  S   S  
------------------12-14p-12-12-12--L---L-|
----------------------------------10h-12-|
--14p-12-12-12-12------------------------|
-----------------------------------------|


   T  T  T  T  T  T  T  T E   T  T  T  T  T  T  T  T E   
--------------------------------------------------------|
--------------------------------------------------------|
--------------------------------------------------------|
--10-10-10-10-10-10-10-10----10-10-10-10-10-10-10-10----|


  S S S S S S S  S S S E     S S S S S S S S S S S S S S  
--------------------------|------------------------------|
-----------------------7--|------------------------------|
-------------------5-8----|------------------------------|
--7-7-7-7-7-7-7-10--------|--7-7-7-7-7---7-7-7-7-7---7---|


  S S S S S S S S S S S S S S S S    S S S S S S S S S S S S S S  
----------------------------------|------------------------------|
----------------------------------|------------------------------|
----------------------------------|------------------------------|
--3-3-3-3-3-3-3-3-0-0-0-0-0-0-0-0-|--7-7-7-7-7---7-7-7-7-7---7---|


  S S S S S S S S S S S S S S S S    W                   W                 
----------------------------------|-------------------|-------------------|
----------------------------------|-------------------|-------------------|
----------------------------------|-------------------|-------------------|
--3-3-3-3-3-3-3-3-0-0-0-0-0-0-0-0-|--1----------------|--0----------------|


  H        Q.     E     H        S S S S S S S S  
---------------------|---------------------------|
---------------------|---------------------------|
---------------------|---------------------------|
--5--------L---------|--4--------7-7-7-7-7-7-7-7-|


  S S S S S S S S S S S S S S S S    S S S S S S S S S S S S S S S S  
----------------------------------|----------------------------------|
----------------------------------|----------------------------------|
----------------------------------|----------------------------------|
--1-1-1-1-1-1-1-1-1-1-1-1-1-1-1-1-|--0-0-0-0-0-0-0-0-0-0-0-0-0-0-0-0-|


  S S S S S S S S S S S S S S S S    S S S S S S S S S S S S S S S S  
----------------------------------|----------------------------------|
----------------------------------|----------------------------------|
----------------------------------|----------------------------------|
--5-5-5-5-5-5-5-5-5-5-5-5-5-5-5-5-|--4-4-4-4-4-4-4-4-7-7-7-7-7-7-7-7-|


  S S S S S S S S S S S S S S S S    S S S S S S S S S S E  S S E   
----------------------------------|--------------------------------|
----------------------------------|--------------------------------|
----------------------------------|--------------------------------|
--1-1-1-1-1-1-1-1-1-1-1-1-1-1-1-1-|--0-0-0-0-0-0-0-0-0-0-0--0-0-0--|


  S S S S S S S S S S S S S S S S    S S S S S S S S S S S S S S S S  
----------------------------------|----------------------------------|
----------------------------------|----------------------------------|
----------------------------------|----------------------------------|
--5-5-5-5-5-5-5-5-5-5-5-5-5-5-5-5-|--4-4-4-4-4-4-4-4-7-7-7-7-7-7-7-7-|


  E.  S E.  S E.  S Q       W                   W                 
-------------------------|-------------------|-------------------|
-------------------------|-------------------|-------------------|
-------------------------|-------------------|-------------------|
--8---7-7---5-5---5-7----|--0----------------|-------------------|


  W                H        Q       W                H        Q     
---------------------------------|---------------------------------|
---------------------------------|---------------------------------|
---------------------------------|---------------------------------|
---------------------------------|---------------------------------|


  W                H        Q       W                H        Q     
---------------------------------|---------------------------------|
---------------------------------|---------------------------------|
---------------------------------|---------------------------------|
---------------------------------|---------------------------------|


  W                H        Q       W                H        Q     
---------------------------------|---------------------------------|
---------------------------------|---------------------------------|
---------------------------------|---------------------------------|
---------------------------------|---------------------------------|


  W                H        Q       W                H        Q     
---------------------------------|---------------------------------|
---------------------------------|---------------------------------|
---------------------------------|---------------------------------|
---------------------------------|---------------------------------|


  W                H        Q       W                H        Q     
---------------------------------|---------------------------------|
---------------------------------|---------------------------------|
---------------------------------|---------------------------------|
---------------------------------|---------------------------------|


  W                H        Q       W                H        Q     
---------------------------------|---------------------------------|
---------------------------------|---------------------------------|
---------------------------------|---------------------------------|
---------------------------------|---------------------------------|


  W                H        Q       W                H        Q     
---------------------------------|---------------------------------|
---------------------------------|---------------------------------|
---------------------------------|---------------------------------|
---------------------------------|---------------------------------|


  W                H        Q       W                H        Q     
---------------------------------|---------------------------------|
---------------------------------|---------------------------------|
---------------------------------|---------------------------------|
---------------------------------|---------------------------------|


  W                H        Q       W                H        Q     
---------------------------------|---------------------------------|
---------------------------------|---------------------------------|
---------------------------------|---------------------------------|
---------------------------------|---------------------------------|


  W                H        Q       W                H        Q     
---------------------------------|---------------------------------|
---------------------------------|---------------------------------|
---------------------------------|---------------------------------|
---------------------------------|---------------------------------|


  W                H        Q       W                H        Q     
---------------------------------|---------------------------------|
---------------------------------|---------------------------------|
---------------------------------|---------------------------------|
---------------------------------|---------------------------------|


  W                H        Q       W                H        Q     
---------------------------------|---------------------------------|
---------------------------------|---------------------------------|
---------------------------------|---------------------------------|
---------------------------------|---------------------------------|


  W                H        Q       W                H        Q     
---------------------------------|---------------------------------|
---------------------------------|---------------------------------|
---------------------------------|---------------------------------|
---------------------------------|---------------------------------|


  W                H        Q       W                H        Q     
---------------------------------|---------------------------------|
---------------------------------|---------------------------------|
---------------------------------|---------------------------------|
---------------------------------|---------------------------------|


  W                H        Q       W                H        Q     
---------------------------------|---------------------------------|
---------------------------------|---------------------------------|
---------------------------------|---------------------------------|
---------------------------------|---------------------------------|


  W                H        Q       W                H        Q      
---------------------------------|---------------------------------||
---------------------------------|---------------------------------||
---------------------------------|---------------------------------||
---------------------------------|---------------------------------||




Duration Legend
---------------
W - whole
H - half
Q - quarter
E - 8th
S - 16th
T - 32nd
X - 64th
. - note dotted
|-n-|  - n-tuplets


Tablature Legend
----------------
L - tied note
x - dead note
g - grace note
(n) - ghost note
> - accentuded note
NH - natural harmonic
AH - artificial harmonic
TH - tapped harmonic
SH - semi harmonic
PH - pitch harmonic
h - hammer on
p - pull off
b - bend
br - bendRelease
pb - preBend
pbr - preBendRelease
brb - bendReleaseBend
\n/ - tremolo bar dip
\n - tremolo bar dive
-/n - tremolo bar Release up
/n\ - tremolo bar inverted dip
/n - tremolo bar return
-\n - tremolo bar Release down
S - shift slide
s - legato slide
/ -  slide into from below or out of upwards
\ -  slide into from above or out of downwards
~ - vibrato
W - wide vibrato
tr - trill
TP - tremolo picking
T - tapping
S - slap
P - pop
< - fade in
^ - brush up
v - brush down
comments
We did not receive enough feedback on this tab! Please rate:
print report bad tab
1 2 3 4 5
I want to post or [tab]
guest
You may want to rate the tab now too:
select rating
Please do not post tabs as comments. Select "correction" instead!