Oops, an error
Loading. Please wait.

Sequoia Throne Bass Tab

ver1
ver1

Whole song

More versions @911Tabs.com
16,171 views 18 this week
3 commentsread comments
1 2 3 4 5
accurate
x 4
Autoscroll
+/-
esc
set tempo
stop
Contributor
Difficulty
Tuning
advanced
D# G# C# F# A# D#
Hey! There's an official Ultimate Guitar app which is ideal
for learning songs when you're away from computer. Get the app
WARNING: You are trying to view
                                    content from Ultimate-Guitar.com
                                    in an unauthorized application,
                                    which is prohibited.

                                    Please use an official Ultimate
                                    Guitar Tabs application for iPhone,
                                    iPad or Android to access legitimate
                                    chords, guitar, bass, and drum tabs
                                    from Ultimate-Guitar.com database.

                                    Type "ultimate guitar tabs" in Apple
                                    App Store's or Android Market's
                                    search to find the application.
----------------------------------------------------------
Protest The Hero - Sequoia Throne

Arif Mirabdolbaghi

----------------------------------------------------------

                                            
 -Tabbed for 4 string bass                  

 -Half step down tuning                       

 -Time sigs included

 -Rough timestamps for each new 'riff'



(0.00)         

Gb| |----------------------|
Db|4|----------------------|
Ab|4|----------------------|
Eb| |--0-------------------|

----------------------| |--12---------|
----------------------|2|--14---------|
----------------------|4|-------------|
--0-------------------| |-------------|

| |---------------------------------|
|4|---------------------------------|
|4|---------------------------------|
| |--0-0-0-0---0-0-0-0-0----0-0-0-0-|

---------------------------------|
---------------------------------|
---------------------------------|
----0-0-0-0-0----0-0-0-0---0-0-0-|

--------------------------------|
--------------------------------|
--------------------------------|
--0-0----0-0-0-0---0-0-0-0-0----|

---------------------------------|
---------------------------------|
---------------------------------|
--0-0-0-0---0-0-0-0-0----0-0-0-0-|

------------------------------7h9-|
-------------------------78h9-----|
-------------------10h12----------|
--0---0---0--10h12----------------|


(0.11)

------------------------------------------|
------------------------------------------|
------------------------------------------|
--0-0-0h12--0-0-0h12--0-0-0h12--0-0-0h12--|

------------------------------------------|
------------------------------------------|
------------------------------------------|
--0-0-0h12--0-0-0h12--0-0-0h12--0-0-0h12--|

                   T                        
------------------------------------------|
------------------14----------------------|
------------------------------------------|
--0-0-0h12--0-0-0h12--0-0-0h12--0-0-0h12--|

                   T                       
------------------------------------------|
------------------14----------------------|
------------------------------------------|
--0-0-0h12--0-0-0h12--0-0-0h12--0-0-0h12--|


(0.18)

----------------------------|
-------------------------5--|
----------7-----5--6--7-----|
--0-0---0----0--------------|

--------------------------------|
--------------------------------|
----------7-----7s--10--7s--10--|
--0-0---0----0------------------|

----------------------------|
-------------------------5--|
----------7-----5--6--7-----|
--0-0---0----0--------------|

----------------------------| |-------------|
----------------------------|2|-------------|
----------7-----------7-----|4|-------------|
--0-0---0----0--0--0-----0--| |--0----------|


(0.24)

| |-----------------------|
|4|------5---4------------|
|4|--2----------2------2--|
| |-----------------------|

-------------------------|
------5------------5-----|
----------5-----5--------|
--3----------3-----------|


(0.28)

----------------------------|
-------------------------5--|
----------7-----5--6--7-----|
--0-0---0----0--------------|

--------------------------------|
--------------------------------|
----------7-----7s--10--7s--10--|
--0-0---0----0------------------|

----------------------------|
-------------------------5--|
----------7-----5--6--7-----|
--0-0---0----0--------------|
    
----------------------------| |------------|
----------------------------|2|------------|
----------7-----------7-----|4|------------|
--0-0---0----0--0--0-----0--| |--0---------|


(0.35) 

| |-----------------------|
|4|------5---4------------|
|4|--2----------2------2--|
| |-----------------------|
 
-------------------------|
------5------5-----------|
----------5-----5--------|
--3----------------3-----|

-----------------------|
------5----------------|
--2-------2--2------2--|
-----------------------|

-------------------------|
------5------5-----------|
----------------5--------|
--3-------3--------3-----|
 
-----------------------|
------6----------------|
----------6------------|
--4----------4------4--|

-----------------------|
------2----------------|
----------2------------|
--0----------0----0----|

-----------------------|
------6----------------|
----------6------------|
--4----------4------4--|

-----------------------|
------2----------------|
----------2------------|
--0----------0----0----|


(0.47)

----------------------| |--12---------|
----------------------|2|--14---------|
----------------------|4|-------------|
--0-------------------| |-------------|
 
| |-------------------------|
|4|-------------------------|
|4|-------------------------|
| |--0-0-0-0---0-0-0-0-0----|
  
-------------------------|
-------------------------|
-------------------------|
--0-0-0-0---0-0-0-0-0----|
 
-------------------------|
-------------------------|
-------------------------|
--0-0-0-0---0-0-0-0-0----|

--------------------------|
--------------------------|
--------------------------|
--0-0-0-0---0-0-0-0-0-0-0-|
 
-------------------------|
-------------------------|
-------------------------|
--0-0-0-0---0-0-0-0-0----|
  
-------------------------|
-------------------------|
-------------------------|
--0-0-0-0---0-0-0-0-0----|
 
-------------------------|
-------------------------|
-------------------------|
--0-0-0-0---0-0-0-0-0----|
 
--------------------------|
--------------------------|
--------------------------|
--0-0-0-0---0-0-0-0-0-0-0-|


(0.59)

------------------------|
------------------------|
------------------------|
--0--------------15\----|

-----------------------|
-----------------------|
-----------------------|
--0---3---2--5----3----|

-----------------------|
-----------------------|
-------------1----2----|
--0---3---2------------|
 
-----------------------|
-----------------------|
-----------------------|
--0---3---2--5----3----|
                        T          T          T        
                 |---3---|  |---3---|  |---3---|
| |---------------------------------------------|
|7|------------------------------------16h17h19-|
|8|-------------------------15h17h19------------|
| |--0---15---14--15h17h19----------------------|

| |-----------------------|
|4|-----------------------|
|4|-----------------------|
| |--0---3---2--5----3----|

-----------------------|
-----------------------|
-------------1----2----|
--0---3---2------------|

-----------------------|
-----------------------|
-----------------------|
--0---3---2--5----3----|
                      T          T         
              |---3---|  |---3---|  |---3---|
---------------------------------------------|
------------------------------------16h17h19-|
--------------------------15h17h19-----------|
--0---15---14--15h17h19----------------------|
 
-----------------------|
-----------------------|
-----------------------|
--0---3---2--5----3----|
   
-----------------------|
-----------------------|
-------------1----2----|
--0---3---2------------|
  
-----------------------|
-----------------------|
-----------------------|
--0---3---2--5----3----|
                       T          T        T 
              |---3---|  |---3---|  |---3---|
------------------------------------------------|
------------------------------------16h17h19----|
-------------------------15h17h19---------------|
--0---15---14--15h17h19-------------------------|


           T          T          T  
    |---3---|  |---3---|  |---3---|  
| |----------------------16h17h19-|
|3|------------16h17h19-----------|
|8|--15h17h19---------------------|
| |-------------------------------|
 
| |-----------------------|
|4|-----------------------|
|4|-----------------------|
| |--0---3---2--5----3----|
   
-----------------------|
-----------------------|
-------------1----2----|
--0---3---2------------|
  
-----------------------| |-------------|
-----------------------|2|-------------|
-----------------------|4|-------------|
--0---3---2--5----3----| |--0---3---2--|


(1.25) 

| |-----------------------|
|7|-----------------------|
|8|-----2--------2-----0--|
| |--2--------2-----0-----|
 
| |-----------------------------|
|9|-----------------------------|
|8|-----2--------2-----0-----2--|
| |--2--------2-----0-----2-----|
  
| |-----------------------|
|7|-----------------------|
|8|-----2--------2-----0--|
| |--2--------2-----0-----|
 
| |-----------------------------|
|9|-----------------------------|
|8|-----2--------2-----0-----2--|
| |--2--------2-----0-----2-----| 
 
| |-----------------------|
|7|-----------------------|
|8|-----2--------2-----0--|
| |--2--------2-----0-----|
 
| |-----------------------------|
|9|-----------------------------|
|8|-----2--------2-----0-----2--|
| |--2--------2-----0-----2-----|
 
| |-----------------------|
|7|-----------------------|
|8|-----2--------2-----0--|
| |--2--------2-----0-----|
 
| |-----------------------------|
|9|-----------------------------|
|8|-----2--------2-----0-----2--|
| |--2--------2-----0-----2-----|


(1.38) 
                 
| |------------------| |-------------------|
|2|------------------|4|-------------------|
|4|------------------|4|--3----------------|
| |--0-0-0-0---0-0-0-| |-------------------|
     
-------------------|-------------------|
-------------------|-------------------|
-------------------|-------------------|
--5----------------|--0----------------|
 
-------------------|-------------------|
-------------------|-------------------|
-------------------|-------------------|
--L----------------|--8----------------|
  
-------------------|-------------------|
-------------------|-------------------|
-------------------|-------------------|
--5----------------|--0----------------|
    
| |------------------------------|
|5|--4--2------------------------|
|4|--------5--3--2---------------|
| |-----------------5b-----------|


(1.54) 
 
-------------------|----------------------|
-------------------|----------------------|
-------------------|----------------------|
-------------------|--0-------------------|
 
---------------------------------|
---------------------------------|
----8-7-8-7----8-7-8-6---8-7-8-7-|
---------------------------------|

---------------------------------|
---------------------------------|
----8-7-8-7----8-7-8-6---8-7-8-7-|
---------------------------------|

---------------------------------|
---------------------------------|
----8-7-8-7----8-7-8-6---8-7-8-7-|
---------------------------------|
    
---------------------------------|  |-------|
---------------------------------| 3|---R---|
----8-7-8-7----8-7-8-6---8-7-8-7-|16|-------|
---------------------------------|  |-------|


(2.07)

| |----------------------------------------|
|3|-----------17---------------------------|
|4|--------14----14----------14h-15p-14-10-|
| |--12-15----------15-12-15---------------|

------------16p-----------------------14-|
--------14h-----14-----13----------13----|
--14-15------------15p----12----12-------|
-----------------------------11----------|

----------12------------------------|
--------9----9----------9h-10p-9----|
-----10--------10----10----------10-|
--12--------------12----------------|

--------9h-16p-9--------------------14-|
-----10----------10h-13----------13----|
--14--------------------12----12-------|
---------------------------11----------|

--------------------------|
--------------------------|
--7-7-7-7-7-7-6-6-6-6-6-6-|
--------------------------|

--------------------------|
--------------------------|
--5-5-5-5-5-5-4-4-4-4-4-4-|
--------------------------|

-------------------------|
-------------------------|
--3-3-3-3-3-3-3-3-3------|
--------------------0-L--|

-------------------------|
-------------------------|
--3-3-3-3-3-3-3-3-3-5-L--|
-------------------------|

-------------------------|
-------------------------|
--3-3-3-3-3-3-3-3-3------|
--------------------0-L--|

|  |--------------------|
| 9|--------------------|
|16|--3-3-3-3-3-3-3-3-3-|
|  |--------------------|


(2.22)

| |-----21-----19-----21-----19-----|
|4|---------19------------19--------|
|4|---------------------------------|
| |--0-------------0-------------0--|

 
-----21-----19-----21-----19-----|
---------19------------19--------|
---------------------------------|
--0-------------0-------------0--|
 
----------19-----21-----17----|
-------19------------17-------|
--------------0---------------|
-20---------------------------|
 
-----21-----19------21-----19-----|
---------19-------------19--------|
----------------------------------|
--0------------0-0-------------0--|
 
-----21-----19------21-----19-----|
---------19-------------19--------|
----------------------------------|
--0------------0-0-------------0--|


-----21-----19-----21-----17----|
---------19------------17-------|
----------------0---------------|
-20-----------------------------|
    
--21----------------|--19----------------|
--------------------|--------------------|
--------------------|--------------------|
--20----------------|--19----------------|
  
--------21-----------------|
--21-----------------------|
--19-----------------------|
------------0--0--0--0--0--|
 
--------------------------|
--------------------------|
--------------------------|
--0--0--0--0--0--0--0--0--|


(2.45)  
          
-------------------|-------------------|
-------------------|-------------------|
--3----------------|-------------------|
-------------------|--0----------------|
      
-------------------|--------------------|
-------------------|--------------------|
--5----------------|--2--------3--------|
-------------------|--------------------|
    
--------------------|
--------------------|
--------------------|
--5--------3--------|

------------------------|
------------------------|
------------------------|
--1----1----1--1----3---|
             
--------------------|-------------------|
--------------------|-------------------|
--------------------|-------------------|
--5--------6--------|--3----------------|

----------------------|
----------------------|
----------------------|
--0-------------------|

----------------------||
----------------------||
----------------------||
--0-------------------||

(3.10)

TAB LEGEND
| /  slide up
| \  slide down
| h  hammer-on
| p  pull-off
| ~  vibrato
| +  harmonic
| x  Mute note
comments
print report bad tab
3 comments total.
+1 reply
Ouch_needles wrote on October 25 2008, 06:14 am

-----------------------------7h9-|
-------------------------8h9-----|
-------------------10h12---------|
--0---0---0--10h12---------------|

0 reply
bucketheadShred wrote on June 22 2009, 11:25 am

The bass in this song has 5 strings...
unless you knew that...

0 reply
Ouch_needles wrote on May 12 2010, 07:21 am

Yep i'm aware Arif uses a 5 string, since I don't own one I tabbed this so 4 stringers could play the track too. Other than transposing the tapped scale runs at 0.59 up an octave and the riff at 1.54 up an octave there's little change.

I want to post or [tab]
guest
You may want to rate the tab now too:
select rating
Please do not post tabs as comments. Select "correction" instead!