Oops, an error
Loading. Please wait.

Sequoia Throne Bass Tab

ver2
ver2

Whole song

More versions @911Tabs.com
16,408 views 21 this week
2 commentsread comments
1 2 3 4 5
excellent!
x 8
Autoscroll
+/-
esc
set tempo
stop
WARNING: You are trying to view
                                    content from Ultimate-Guitar.com
                                    in an unauthorized application,
                                    which is prohibited.

                                    Please use an official Ultimate
                                    Guitar Tabs application for iPhone,
                                    iPad or Android to access legitimate
                                    chords, guitar, bass, and drum tabs
                                    from Ultimate-Guitar.com database.

                                    Type "ultimate guitar tabs" in Apple
                                    App Store's or Android Market's
                                    search to find the application.
Arif Mirabdolbaghi

For everyone without Guitar Pro. Tabbed by Tom DeLonge II.

      E  H        Q    E     E  H        Q    E      Q    Q     
F#||----------------------|----------------------|--12---------|
C#||----------------------|----------------------|--14---------|
G#||----------------------|----------------------|-------------|
D#||--0-------------------|--0-------------------|-------------|
A#||----------------------|----------------------|-------------|


  S S S S S S S S S S E  S S S S    S S S S S S E  S S S S S S S S  
---------------------------------|---------------------------------|
---------------------------------|---------------------------------|
---------------------------------|---------------------------------|
--0-0-0-0---0-0-0-0-0----0-0-0-0-|----0-0-0-0-0----0-0-0-0---0-0-0-|
---------------------------------|---------------------------------|


  S S E  S S S S S S S S S S E     S S S S S S S S S S E  S S S S  
--------------------------------|---------------------------------|
--------------------------------|---------------------------------|
--------------------------------|---------------------------------|
--0-0----0-0-0-0---0-0-0-0-0----|--0-0-0-0---0-0-0-0-0----0-0-0-0-|
--------------------------------|---------------------------------|


  E.  E.  E  S  S S  S S  S S  S    S S    E  S S    E  S S    E  S S    E   
----------------------------7h-9-|------------------------------------------|
------------------5h-7-8h-9------|------------------------------------------|
-------------5h-7----------------|------------------------------------------|
--0---0---0----------------------|--0-0-0g12--0-0-0g12--0-0-0g12--0-0-0g12--|
---------------------------------|------------------------------------------|


  S S    E  S S    E  S S    E  S S    E   
------------------------------------------|
------------------------------------------|
------------------------------------------|
--0-0-0g12--0-0-0g12--0-0-0g12--0-0-0g12--|
------------------------------------------|


                   T                       
  S S    E  S S    E  S S    E  S S    E   
------------------------------------------|
------------------14----------------------|
------------------------------------------|
--0-0-0g12--0-0-0g12--0-0-0g12--0-0-0g12--|
------------------------------------------|


                   T                                                    
  S S    E  S S    E  S S    E  S S    E     S S S S E  E  E  E  E  E   
------------------------------------------|----------------------------|
------------------14----------------------|-------------------------5--|
------------------------------------------|----------7-----5--6--7-----|
--0-0-0g12--0-0-0g12--0-0-0g12--0-0-0g12--|--0-0---0----0--------------|
------------------------------------------|----------------------------|


  S S S S E  E  E    E  E    E     S S S S E  E  E  E  E  E   
--------------------------------|----------------------------|
--------------------------------|-------------------------5--|
----------7-----7s--10--7s--10--|----------7-----5--6--7-----|
--0-0---0----0------------------|--0-0---0----0--------------|
--------------------------------|----------------------------|


  S S S S E  E  E  E  E  E     E  Q    E     E.  E.  E  Q.     E   
----------------------------|-------------|-----------------------|
----------------------------|-------------|------5---4------------|
----------7-----------7-----|-------------|--2----------2------2--|
--0-0---0----0--0--0-----0--|--0----------|-----------------------|
----------------------------|-------------|-----------------------|


  E.  E.  E  E  E  E  E     S S S S E  E  E  E  E  E   
-------------------------|----------------------------|
------5------------5-----|-------------------------5--|
----------5-----5--------|----------7-----5--6--7-----|
--3----------3-----------|--0-0---0----0--------------|
-------------------------|----------------------------|


  S S S S E  E  E    E  E    E     S S S S E  E  E  E  E  E   
--------------------------------|----------------------------|
--------------------------------|-------------------------5--|
----------7-----7s--10--7s--10--|----------7-----5--6--7-----|
--0-0---0----0------------------|--0-0---0----0--------------|
--------------------------------|----------------------------|


  S S S S E  E  E  E  E  E     Q    Q       E.  E.  E  Q.     E   
----------------------------|------------|-----------------------|
----------------------------|------------|------5---4------------|
----------7-----------7-----|------------|--2----------2------2--|
--0-0---0----0--0--0-----0--|--0---------|-----------------------|
----------------------------|------------|-----------------------|


  E.  E.  E  E  E  E  E     E.  E.  E  Q.     E     E.  E.  E  E  E  E  E   
-------------------------|-----------------------|-------------------------|
------5------5-----------|------5----------------|------5------5-----------|
----------5-----5--------|--2-------2--2------2--|----------------5--------|
--3----------------3-----|-----------------------|--3-------3--------3-----|
-------------------------|-----------------------|-------------------------|


  E.  E.  E  Q.     E     E.  E.  E  Q    Q       E.  E.  E  Q.     E   
-----------------------|-----------------------|-----------------------|
------6----------------|------2----------------|------6----------------|
----------6------------|----------2------------|----------6------------|
--4----------4------4--|--0----------0----0----|--4----------4------4--|
-----------------------|-----------------------|-----------------------|


  E.  E.  E  Q    Q       E  H        Q    E      Q    Q     
-----------------------|----------------------|--12---------|
------2----------------|----------------------|--14---------|
----------2------------|----------------------|-------------|
--0----------0----0----|--0-------------------|-------------|
-----------------------|----------------------|-------------|


  S S S S S S S S S S E     S S S S S S S S S S E     S S S S S S S S S S E   
-------------------------|-------------------------|-------------------------|
-------------------------|-------------------------|-------------------------|
-------------------------|-------------------------|-------------------------|
--0-0-0-0---0-0-0-0-0----|--0-0-0-0---0-0-0-0-0----|--0-0-0-0---0-0-0-0-0----|
-------------------------|-------------------------|-------------------------|


  S S S S S S S S S S S S    S S S S S S S S S S E     S S S S S S S S S S E   
--------------------------|-------------------------|-------------------------|
--------------------------|-------------------------|-------------------------|
--------------------------|-------------------------|-------------------------|
--0-0-0-0---0-0-0-0-0-0-0-|--0-0-0-0---0-0-0-0-0----|--0-0-0-0---0-0-0-0-0----|
--------------------------|-------------------------|-------------------------|


  S S S S S S S S S S E     S S S S S S S S S S S S    E  H        E   Q      
-------------------------|--------------------------|------------------------|
-------------------------|--------------------------|------------------------|
-------------------------|--------------------------|------------------------|
--0-0-0-0---0-0-0-0-0----|--0-0-0-0---0-0-0-0-0-0-0-|--0--------------15\----|
-------------------------|--------------------------|------------------------|


  E.  E.  E  Q    Q       E.  E.  E  Q    Q       E.  E.  E  Q    Q     
-----------------------|-----------------------|-----------------------|
-----------------------|-----------------------|-----------------------|
-----------------------|-------------1----2----|-----------------------|
--0---3---2--5----3----|--0---3---2------------|--0---3---2--5----3----|
-----------------------|-----------------------|-----------------------|


                     T         T         T                          
             |---3---| |---3---| |---3---|                          
  E.  E.  E  S   S   S S   S   S S   S   S    E.  E.  E  Q    Q     
-------------------------------------------|-----------------------|
-------------------------------------------|-----------------------|
---------------------------------9h-10h-12-|-----------------------|
--0---3---2------------8h-10h-12-----------|--0---3---2--5----3----|
-------------8h-10h-12---------------------|-----------------------|


  E.  E.  E  Q    Q       E.  E.  E  Q    Q     
-----------------------|-----------------------|
-----------------------|-----------------------|
-------------1----2----|-----------------------|
--0---3---2------------|--0---3---2--5----3----|
-----------------------|-----------------------|


                     T         T         T         T                          
             |---3---| |---3---| |---3---| |---3---|                          
  E.  E.  E  S   S   S S   S   S S   S   S S   S   S    E.  E.  E  Q    Q     
-----------------------------------------------------|-----------------------|
-------------------------------------------9h-10h-12-|-----------------------|
---------------------------------9h-10h-12-----------|-----------------------|
--0---3---2------------8h-10h-12---------------------|--0---3---2--5----3----|
-------------8h-10h-12-------------------------------|-----------------------|


  E.  E.  E  Q    Q       E.  E.  E  Q    Q     
-----------------------|-----------------------|
-----------------------|-----------------------|
-------------1----2----|-----------------------|
--0---3---2------------|--0---3---2--5----3----|
-----------------------|-----------------------|


                     T         T         T               T         T         T  
             |---3---| |---3---| |---3---|       |---3---| |---3---| |---3---|  
  E.  E.  E  S   S   S S   S   S S   S   S E     S   S   S S   S   S S   S   S  
----------------------------------------------|--------------------------------|
----------------------------------------------|----------------------9h-10h-12-|
---------------------------------9h-10h-12----|------------9h-10h-12-----------|
--0---3---2------------8h-10h-12--------------|--8h-10h-12---------------------|
-------------8h-10h-12------------------------|--------------------------------|


  E.  E.  E  Q    Q       E.  E.  E  Q    Q       E.  E.  E  Q    Q     
-----------------------|-----------------------|-----------------------|
-----------------------|-----------------------|-----------------------|
-----------------------|-------------1----2----|-----------------------|
--0---3---2--5----3----|--0---3---2------------|--0---3---2--5----3----|
-----------------------|-----------------------|-----------------------|


  E.  E.  E     E  E  E  E  E  E  E     E  E  E  E  E  E  E  E  E   
-------------|-----------------------|-----------------------------|
-------------|-----------------------|-----------------------------|
-------------|-----------------------|-----------------------------|
--0---3---2--|-----7--------7-----5--|-----7--------7-----5-----7--|
-------------|--7--------7-----5-----|--7--------7-----5-----7-----|


  E  E  E  E  E  E  E     E  E  E  E  E  E  E  E  E     E  E  E  E  E  E  E   
-----------------------|-----------------------------|-----------------------|
-----------------------|-----------------------------|-----------------------|
-----------------------|-----------------------------|-----------------------|
-----7--------7-----5--|-----7--------7-----5-----7--|-----7--------7-----5--|
--7--------7-----5-----|--7--------7-----5-----7-----|--7--------7-----5-----|


  E  E  E  E  E  E  E  E  E     E  E  E  E  E  E  E   
-----------------------------|-----------------------|
-----------------------------|-----------------------|
-----------------------------|-----------------------|
-----7--------7-----5-----7--|-----7--------7-----5--|
--7--------7-----5-----7-----|--7--------7-----5-----|


  E  E  E  E  E  E  E  E  E     S S S S S S S S    W                 
-----------------------------|------------------|-------------------|
-----------------------------|------------------|-------------------|
-----------------------------|------------------|-------------------|
-----7--------7-----5-----7--|--0-0-0-0---0-0-0-|--8----------------|
--7--------7-----5-----7-----|------------------|-------------------|


  W                   W                   W                   W                 
-------------------|-------------------|-------------------|-------------------|
-------------------|-------------------|-------------------|-------------------|
-------------------|-------------------|-------------------|-------------------|
--5----------------|--0----------------|--L----------------|--8----------------|
-------------------|-------------------|-------------------|-------------------|


  W                   W                   E  E  E  E  E  E   H         
-------------------|-------------------|------------------------------|
-------------------|-------------------|--4--2------------------------|
-------------------|-------------------|--------5--3--2---------------|
--5----------------|--0----------------|-----------------5b--L--------|
-------------------|-------------------|------------------------------|


  W                   E  H        Q    E     S S S S S E  S S S S S S S S S  
-------------------|----------------------|---------------------------------|
-------------------|----------------------|---------------------------------|
-------------------|----------------------|---------------------------------|
-------------------|--0-------------------|---------------------------------|
-------------------|----------------------|----6-5-6-5----6-5-6-4---6-5-6-5-|


  S S S S S E  S S S S S S S S S    S S S S S E  S S S S S S S S S  
---------------------------------|---------------------------------|
---------------------------------|---------------------------------|
---------------------------------|---------------------------------|
---------------------------------|---------------------------------|
----6-5-6-5----6-5-6-4---6-5-6-5-|----6-5-6-5----6-5-6-4---6-5-6-5-|


                                             T       T       T        T        
  S S S S S E  S S S S S S S S S    E  S     S  S S  S S  S  S  S S   S  S  S  
---------------------------------|-------|----------12------------------------|
---------------------------------|-------|--------9----9----------9h-10p-9----|
---------------------------------|-------|-----10--------10----10----------10-|
---------------------------------|-------|--12--------------12----------------|
----6-5-6-5----6-5-6-4---6-5-6-5-|-------|------------------------------------|


   T        T         T           T  T     T       T       T        T        
   S  S S   S  S  S   S  S  S  S  S  S     S  S S  S S  S  S  S S   S  S  S  
--------9h-16p-9--------------------14-|----------12------------------------|
-----10----------10h-13----------13----|--------9----9----------9h-10p-9----|
--14--------------------12----12-------|-----10--------10----10----------10-|
---------------------------11----------|--12--------------12----------------|
---------------------------------------|------------------------------------|


   T        T         T           T  T                             
   S  S S   S  S  S   S  S  S  S  S  S    S S S S S S S S S S S S  
--------9h-16p-9--------------------14-|--------------------------|
-----10----------10h-13----------13----|--------------------------|
--14--------------------12----12-------|--7-7-7-7-7-7-6-6-6-6-6-6-|
---------------------------11----------|--------------------------|
---------------------------------------|--------------------------|


  S S S S S S S S S S S S    S S S S S S S S S S E     S S S S S S S S S S E   
--------------------------|-------------------------|-------------------------|
--------------------------|-------------------------|-------------------------|
--5-5-5-5-5-5-4-4-4-4-4-4-|--3-3-3-3-3-3-3-3-3------|--3-3-3-3-3-3-3-3-3-5-L--|
--------------------------|--------------------0-L--|-------------------------|
--------------------------|-------------------------|-------------------------|


  S S S S S S S S S S E     S S S S S S S S S  
-------------------------|--------------------|
-------------------------|--------------------|
--3-3-3-3-3-3-3-3-3------|--3-3-3-3-3-3-3-3-3-|
--------------------0-L--|--------------------|
-------------------------|--------------------|


       NH   NH  NH      NH   NH  NH            NH   NH  NH      NH   NH  NH     
  E    E    S   E  E    E    S   E  E     E    E    S   E  E    E    S   E  E   
-----<>9------<>7-----<>9------<>7-----|-----<>9------<>7-----<>9------<>7-----|
----------<>7--------------<>7---------|----------<>7--------------<>7---------|
---------------------------------------|---------------------------------------|
--0----------------0----------------0--|--0----------------0----------------0--|
---------------------------------------|---------------------------------------|


       NH   NH  NH      NH   NH  NH           NH   NH  NH       NH   NH  NH     
  E    E    S   E  E    E    S   Q       E    E    S   S S E    E    S   E  E   
-----<>7------<>7-----<>9------<>5----|-----<>9------<>7------<>9------<>7-----|
----------<>7--------------<>5--------|----------<>7---------------<>7---------|
-------------------0-------------L----|----------------------------------------|
--8-------------L---------------------|--0---------------0-0----------------0--|
--------------------------------------|----------------------------------------|


       NH   NH  NH       NH   NH  NH            NH   NH  NH      NH   NH  NH    
  E    E    S   S S E    E    S   E  E     E    E    S   E  E    E    S   Q     
-----<>9------<>7------<>9------<>7-----|-----<>7------<>7-----<>9------<>5----|
----------<>7---------------<>7---------|----------<>7--------------<>5--------|
----------------------------------------|-------------------0-------------L----|
--0---------------0-0----------------0--|--8-------------L---------------------|
----------------------------------------|--------------------------------------|


    NH                    NH                    NH     NH                 
    W                     W                     Q      E  E  E  E  E  E   
--<>9----------------|--<>7----------------|---------<>9-----------------|
---------------------|---------------------|--<>9------------------------|
---------------------|---------------------|--<>7------------------------|
----8----------------|----7----------------|--------------0--0--0--0--0--|
---------------------|---------------------|-----------------------------|


  E  E  E  E  E  E  E  E     W                   W                 
--------------------------|-------------------|-------------------|
--------------------------|-------------------|-------------------|
--------------------------|-------------------|-------------------|
--0--0--0--0--0--0--0--0--|-------------------|-------------------|
--------------------------|--1----------------|--5----------------|


  W                   H        H           H        H         
-------------------|--------------------|--------------------|
-------------------|--------------------|--------------------|
-------------------|--------------------|--------------------|
-------------------|--------------------|--5--------3--------|
--3----------------|--0--------1--------|--------------------|


  Q    Q    E  E  S E.     H        H           W                 
------------------------|--------------------|-------------------|
------------------------|--------------------|-------------------|
------------------------|--------------------|-------------------|
--1----1----1--1----3---|--5--------6--------|--3----------------|
------------------------|--------------------|-------------------|


  E  H        Q    E     E  H        Q    E    
----------------------|----------------------||
----------------------|----------------------||
----------------------|----------------------||
--0-------------------|--0-------------------||
----------------------|----------------------||




Duration Legend
---------------
W - whole
H - half
Q - quarter
E - 8th
S - 16th
T - 32nd
X - 64th
. - note dotted
|-n-|  - n-tuplets


Tablature Legend
----------------
L - tied note
x - dead note
g - grace note
(n) - ghost note
> - accentuded note
NH - natural harmonic
AH - artificial harmonic
TH - tapped harmonic
SH - semi harmonic
PH - pitch harmonic
h - hammer on
p - pull off
b - bend
br - bendRelease
pb - preBend
pbr - preBendRelease
brb - bendReleaseBend
\n/ - tremolo bar dip
\n - tremolo bar dive
-/n - tremolo bar Release up
/n\ - tremolo bar inverted dip
/n - tremolo bar return
-\n - tremolo bar Release down
S - shift slide
s - legato slide
/ -  slide into from below or out of upwards
\ -  slide into from above or out of downwards
~ - vibrato
W - wide vibrato
tr - trill
TP - tremolo picking
T - tapping
S - slap
P - pop
< - fade in
^ - brush up
v - brush down
comments
print report bad tab
2 comments total.
0 reply
Ran Ran Ru wrote on November 18 2009, 08:07 pm

A couple minor corrections:

-----------------------
-----------------------
-------------1----2----
--0---3---2------------
-----------------------
Could be changed to
-----------------------
-----------------------
------------------2----
--0---3---2--5---------
-----------------------
It makes it a bit easier in my opinion, as you don't have to move your hand up and down the fret board.

---------9-----------------|
--9------------------------|
--7------------------------|
--------------0--0--0--0--0--|
-----------------------------|
Should be
---------12----------------|
--9------------------------|
--7------------------------|
--------------0--0--0--0--0--|
-----------------------------|
I think it sounds more like it if you listen closely.

0 reply
MoTTKidd wrote on April 11 2010, 10:37 pm

5 on the E string is not the same as 1 on the A string, Ran Ran Ru...

I want to post or [tab]
guest
You may want to rate the tab now too:
select rating
Please do not post tabs as comments. Select "correction" instead!