Oops, an error
Loading. Please wait.

Sequoia Throne Bass Tab

ver2
17,011 views 1 this week
2 commentsread comments
1 2 3 4 5
excellent!
x 8
add to favorites
launch autoscroll
font size
0
reset
Autoscroll
+/-
esc
set tempo
stop
WARNING: You are trying to view
                                    content from Ultimate-Guitar.com
                                    in an unauthorized application,
                                    which is prohibited.

                                    Please use an official Ultimate
                                    Guitar Tabs application for iPhone,
                                    iPad or Android to access legitimate
                                    chords, guitar, bass, and drum tabs
                                    from Ultimate-Guitar.com database.

                                    Type "ultimate guitar tabs" in Apple
                                    App Store's or Android Market's
                                    search to find the application.
This tab has been removed at the request of the publisher
Wherever possible, Ultimate Guitar will try to work with the publisher to restore the tab to the site.
comments
print report bad tab
2 comments total.
0 reply
Ran Ran Ru wrote on November 18 2009, 08:07 pm

A couple minor corrections:

-----------------------
-----------------------
-------------1----2----
--0---3---2------------
-----------------------
Could be changed to
-----------------------
-----------------------
------------------2----
--0---3---2--5---------
-----------------------
It makes it a bit easier in my opinion, as you don't have to move your hand up and down the fret board.

---------9-----------------|
--9------------------------|
--7------------------------|
--------------0--0--0--0--0--|
-----------------------------|
Should be
---------12----------------|
--9------------------------|
--7------------------------|
--------------0--0--0--0--0--|
-----------------------------|
I think it sounds more like it if you listen closely.

0 reply
MoTTKidd wrote on April 11 2010, 10:37 pm

5 on the E string is not the same as 1 on the A string, Ran Ran Ru...

I want to post or [tab]
guest
You may want to rate the tab now too:
select rating
Please do not post tabs as comments. Select "correction" instead!