Oops, an error
Loading. Please wait.

Sequoia Throne Tab

ver2
ver2

Solo

Whole song

Video

More versions @911Tabs.com
51,391 views 30 this week
22 commentsread comments
1 2 3 4 5
excellent!
x 23
Autoscroll
+/-
esc
set tempo
stop
Contributor
Hey! There's an official Ultimate Guitar app which is ideal
for learning songs when you're away from computer. Get the app
WARNING: You are trying to view
                                    content from Ultimate-Guitar.com
                                    in an unauthorized application,
                                    which is prohibited.

                                    Please use an official Ultimate
                                    Guitar Tabs application for iPhone,
                                    iPad or Android to access legitimate
                                    chords, guitar, bass, and drum tabs
                                    from Ultimate-Guitar.com database.

                                    Type "ultimate guitar tabs" in Apple
                                    App Store's or Android Market's
                                    search to find the application.
Protest the Hero
Sequioa Throne
Eb - Eb Ab Db Gb Bb eb

                        
      E   S  S  S  S  S  S  S  S  S  S  S  S  S  S
eb||--0--------------------t17---------------------12--|
Bb||-----12-15--t17---12-15----12-15-t17---------14----|
Gb||---------------------------------------12-15-------|
Db||---------------------------------------------------|
Ab||---------------------------------------------------|
Eb||---------------------------------------------------|

                                            
  E   S  S  S  S  S  S  S  S  S  S  S  S  S  S    Q     Q
--0--------------------t17----------12-15-t17-15-12-|-------------|
-----12-15--t17---12-15----12-15-t17----------------|-------------|
----------------------------------------------------|-------------|
----------------------------------------------------|-------------|
----------------------------------------------------|--7\---------|
----------------------------------------------------|--6\---------|
            

  E   S  S  S  S  S  S  S  S  S  S     S  S  S  S E   S  S  S  S  S  S
--0-----------------t17------------|-----------12-0-----------------t17-|
-----12-15-t17-12-15----12-15-t17--|--------14-------12-15-t17-12-15----|
-----------------------------------|--12-15-----------------------------|
-----------------------------------|------------------------------------|
-----------------------------------|------------------------------------|
-----------------------------------|------------------------------------|


   S  S  S  S  S  S  S  S E   S  S     S  S  S  S  S  S  S  S  S  S  S  S
-----------12-15-t17-15-12-0-------|----------t17----------------------12-|
--12-15-t17------------------12-15-|-t17-12-15----12-15-14----------14----|
-----------------------------------|--------------------------12-15-------|
-----------------------------------|--------------------------------------|
-----------------------------------|--------------------------------------|
-----------------------------------|--------------------------------------|


  E   S  S  S  S  S  S  S  S  S  S     S  S  S  S  Q     Q
--0-----------------t17-------------|-----------12-12\---------|----|
-----12-15-t17-12-15----12-15-17----|--------14----------------|----|
------------------------------------|--12-15-------------------|----|
------------------------------------|--------------------------|----|
------------------------------------|--------------------------|----|
------------------------------------|--------------------------|----|


  PM PM PM PM PM PM PM PM
  S  S  S  S  S  S  S  S  S S S S S S S S
------------------------------------------|
------------------------------------------|
------------------------------------------|
------------------------------------------|
--2--2--2--2--2--2--2--2------------------|
--0--0--0--0--0--0--0--0--5-4-0-1-0-0-4-5-|


  PM PM PM PM PM PM PM PM
  S  S  S  S  S  S  S  S  S S S S S S S S
------------------------------------------|
------------------------------------------|
------------------------------------------|
----------------------------------------2-|
--2--2--2--2--2--2--2--2----2-3-----2-3---|
--0--0--0--0--0--0--0--0--5-----4-5-------|


  PM PM PM PM PM PM PM PM
  S  S  S  S  S  S  S  S  S S S S S S S S
------------------------------------------|
------------------------------------------|
------------------------------------------|
------------------------------------------|
--2--2--2--2--2--2--2--2------------------|
--0--0--0--0--0--0--0--0--5-4-0-1-0-0-4-5-|


  PM PM PM PM PM PM PM PM
  S  S  S  S  S  S  S  S  S  S  S S  S  S  S  S
------------------------------------------------|
------------------------------------------------|
------------------------------------------10-12-|
----------------------------------9-11-13-------|
--2--2--2--2--2--2--2--2--8-10-12---------------|
--0--0--0--0--0--0--0--0------------------------|


  PM PM PM PM PM PM                    PM PM PM PM PM PM
  S  E  E  S  S  S  S S S S S S S S    S  E  E  S  S  S  S S S S S S S S
------------------------------------|------------------------------------|
------------------------------------|------------------------------------|
------------------------------------|------------------------------------|
------------------------------------|----------------------------------2-|
--2--2--2--2--2--2------------------|--2--2--2--2--2--2----2-3-----2-3---|
--0--0--0--0--0--0--5-4-0-1-0-0-4-5-|--0--0--0--0--0--0--5-----4-5-------|


  PM PM PM PM PM PM
  S  E  E  S  S  S  S S S S E  S S    S S S S S S S S S S S S S S S S
-----------------------------------|----------------------------------|
-----------------------------------|--------------------------------3-|
-----------------------------------|----------------------2-4-5-4-5---|
-----------------------------------|------------2-3-2-3-5-------------|
--2--2--2--2--2--2-----------------|--2-0-2-3-5-----------------------|
--0--0--0--0--0--0--5-4-0-1-0--4-5-|----------------------------------|


  Q    Q        S  S S  S  S  S  S  S  S  S  S  S  S  S  S  S
------------|-------------------------------------------------|
------------|--12-15-0-12-15-22-12-15-19-12-15-17-12-15-22-12-|
------------|-------------------------------------------------|
------------|-------------------------------------------------|
--2---------|-------------------------------------------------|
--0---------|-------------------------------------------------|


   S  S  S  S  S  S  S  S  S  S  S  S  S  S  S   S
---------------------------------------------------|
---------------------------------------------------|
--24-12-23-12-14-21-12-14-19-12-14-18-12-14-21s-23-|
---------------------------------------------------|
---------------------------------------------------|
---------------------------------------------------|


  PM  PM PM PM PM                    PM  PM PM PM PM
  E.  E  S  S  S  S S S S S S S S    E.  E  S  S  S  S S S S S S S S
----------------------------------|----------------------------------|
----------------------------------|----------------------------------|
----------------------------------|----------------------------------|
----------------------------------|--------------------------------2-|
--2---2--2--2--2------------------|--2---2--2--2--2----2-3-----2-3---|
--0---0--0--0--0--5-4-0-1-0-0-4-5-|--0---0--0--0--0--5-----4-5-------|


  PM  PM PM PM PM
  E.  E  S  S  S  S S S S E  S S    S S S S S S S S S S S S S S S S
---------------------------------|----------------------------------|
---------------------------------|--------------------------------3-|
---------------------------------|----------------------2-4-5-4-5---|
---------------------------------|------------2-3-2-3-5-------------|
--2---2--2--2--2-----------------|--2-0-2-3-5-----------------------|
--0---0--0--0--0--5-4-0-1-0--4-5-|----------------------------------|


  Q    Q        S  S S  S  S  S  S  S  S  S  S  S  S  S  S  S
------------|-------------------------------------------------|
------------|--12-15-0-12-15-22-12-15-19-12-15-17-12-15-22-12-|
------------|-------------------------------------------------|
------------|-------------------------------------------------|
--2---------|-------------------------------------------------|
--0---------|-------------------------------------------------|


   S  S  S  S  S  S  S  S  S  S  S  S  S  S  S   S
---------------------------------------------------|
---------------------------------------------------|
--24-12-23-12-14-21-12-14-19-12-14-18-12-14-21s-23-|
---------------------------------------------------|
---------------------------------------------------|
---------------------------------------------------|


   S  S S  S  S  S  S  S  S  S  S  S  S  S  S  S
-------------------------------------------------|
--12-15-0-12-15-22-12-15-19-12-15-17-12-15-22-12-|
-------------------------------------------------|
-------------------------------------------------|
-------------------------------------------------|
-------------------------------------------------|


   S  S  S  S  S  S  S  S  S  S  S  S  S  S  S   S
---------------------------------------------------|
---------------------------------------------------|
--24-12-23-12-14-21-12-14-19-12-14-18-12-14-21s-23-|
---------------------------------------------------|
---------------------------------------------------|
---------------------------------------------------|


  S  S  S S  S  S S  S  S S  S  S S  S  S  S
---------------------------------------------|
--9-12-21-9-12-19-9-12-16-9-12-14-9-12-11-12-|
---------------------------------------------|
---------------------------------------------|
---------------------------------------------|
---------------------------------------------|


   S S  S S  S  S S S  S S S  S S S  S   S
-------------------------------------------|
--17-9-16-9-11-14-0-9-12-0-9-11-0-9-14s-16-|
-------------------------------------------|
-------------------------------------------|
-------------------------------------------|
-------------------------------------------|


  S  S  S S  S  S S  S  S S  S  S S  S  S  S
---------------------------------------------|
--9-12-21-9-12-19-9-12-16-9-12-14-9-12-11-12-|
---------------------------------------------|
---------------------------------------------|
---------------------------------------------|
---------------------------------------------|


   S S  S S  S  S S S  S S S  S S S  S   S
-------------------------------------------|
--17-9-16-9-11-14-0-9-12-0-9-11-0-9-14s-16-|
-------------------------------------------|
-------------------------------------------|
-------------------------------------------|
-------------------------------------------|


  E   S  S  S  S  S  S  S  S  S  S  S  S  S  S    Q     Q
--0--------12-------17----------12----------12-|-------------|
-----12-15----12-15----15-12-15----------14----|-------------|
-----------------------------------12-15-------|-------------|
-----------------------------------------------|-------------|
-----------------------------------------------|--7\---------|
-----------------------------------------------|--6\---------|


  PM PM PM PM PM PM PM PM PM        PM PM PM PM PM PM PM PM PM
  S  S  S  E  S  S  S  S  S  S S    S  S  S  E  S  S  S  S  S  S S
---------------------------------|---------------------------------|
---------------------------------|---------------------------------|
---------------------------------|---------------------------------|
---------------------------------|---------------------------------|
--2--2--2--2--2--2--2--2--2------|--2--2--2--2--2--2--2--2--2------|
--0--0--0--0--0--0--0--0--0------|--0--0--0--0--0--0--0--0--0------|


  PM PM PM PM PM PM PM PM PM        PM PM PM PM PM PM PM     NH  NH  NH  NH
  S  S  S  E  S  S  S  S  S  S S    S  S  S  S  S  S  S  S   S   S   S   S
---------------------------------|-----------------------------------------|
---------------------------------|-----------------------------------------|
---------------------------------|-----------------------------------------|
---------------------------------|-----------------------------------------|
--2--2--2--2--2--2--2--2--2------|--2--2--2--2--2--2--2--2-<>2-<>2-<>2-<>2-|
--0--0--0--0--0--0--0--0--0------|--0--0--0--0--0--0--0--0-----------------|


  PM PM PM PM PM PM PM PM PM        PM PM PM PM PM PM PM PM PM
  S  S  S  E  S  S  S  S  S  S S    S  S  S  E  S  S  S  S  S  S S
---------------------------------|---------------------------------|
---------------------------------|---------------------------------|
---------------------------------|---------------------------------|
---------------------------------|---------------------------------|
--2--2--2--2--2--2--2--2--2------|--2--2--2--2--2--2--2--2--2------|
--0--0--0--0--0--0--0--0--0------|--0--0--0--0--0--0--0--0--0------|


  PM PM PM PM PM PM PM PM PM        PM PM PM PM PM PM PM     NH  NH  NH  NH
  S  S  S  E  S  S  S  S  S  S S    S  S  S  S  S  S  S  S   S   S   S   S
---------------------------------|-----------------------------------------|
---------------------------------|-----------------------------------------|
---------------------------------|-----------------------------------------|
---------------------------------|-----------------------------------------|
--2--2--2--2--2--2--2--2--2------|--2--2--2--2--2--2--2--2-<>2-<>2-<>2-<>2-|
--0--0--0--0--0--0--0--0--0------|--0--0--0--0--0--0--0--0-----------------|


                     PH
  E.   E.  E  Q      Q        E.   E.  E  Q    Q        E.   E.  E  Q    Q
---------------------------|-------------------------|------------------------|
---------------------------|-------------------------|------------------------|
---------------------------|-------------------------|------------------------|
------/5---4---------------|------/5---4-------------|------/5---4------------|
--2------------------------|--2----------------------|--2---------------------|
--0-----------5----<>5b----|--0-----------5----3~----|--0-----------5----6----|


                                       |--3-| |--3-| |--3-|
  E.   E.  E  Q    Q       E.   E.  E  S S  S S S  S S S  S
------------------------|----------------------------3-5h-7-|
------------------------|---------------------3-5h-7--------|
------/4---2------------|------/4---2--2-4h-5---------------|
------------------------|-----------------------------------|
--2-----------3----2----|--2--------------------------------|
--0---------------------|--0--------------------------------|


  E.   E.  E  Q    Q       E.   E.  E  Q    Q       E.   E.  E  Q    Q
------------------------|------------------------|------------------------|
------------------------|------------------------|------------------------|
------/4---2------------|------/4---2------------|------/4---2------------|
------------------------|------------------------|------------------------|
--2-----------3----2----|--2-----------4----5----|--2-----------4----5----|
--0---------------------|--0---------------------|--0---------------------|


              |--3-| |--3-| |--3-| |---3--|
  E.   E.  E  S S  S S S  S S S  S S  S   S    E  S E.  T T S Q    Q
----------------------------3-5h-7-8-10h-12-|----------------------------|
---------------------3-5h-7-----------------|----------------------------|
------/4---2--2-4h-5------------------------|-------4---2-4-2-5----4~----|
--------------------------------------------|----------------------------|
--2-----------------------------------------|--2-------------------------|
--0-----------------------------------------|--0-------------------------|


  E  S E.  T T S Q    Q       E  S E.  T T S Q    Q
---------------------------|----------------------------|
-----------------2----3----|----------------------------|
-------4---2-4-2-----------|-------4---2-4-2-5----4~----|
---------------------------|----------------------------|
--2------------------------|--2-------------------------|
--0------------------------|--0-------------------------|


                 |--3-| |--3-| |--3-|       |--3-| |--3--| |--3-|
  E  S E.  T T S S S  S S S  S S S  S E     S S  S S  S  S S S  S
-------------------------------3-5h-7----|-----------------7-8-10-|
------------------------3-5h-7-----------|---------8-10-12--------|
-------4---2-4-2-2-4h-5------------------|--7-9-10----------------|
-----------------------------------------|------------------------|
--2--------------------------------------|------------------------|
--0--------------------------------------|------------------------|


  E  S E.  T T S Q    Q        E  S E.  T T S Q    Q
----------------------------|---------------------------|
----------------------------|-----------------2----3----|
-------4---2-4-2-5----4~----|-------4---2-4-2-----------|
----------------------------|---------------------------|
--2-------------------------|--2------------------------|
--0-------------------------|--0------------------------|


  E  S E.  T T S Q    Q        E  S E.  T T S
----------------------------|-----------------|
----------------------------|-----------------|
-------4---2-4-2-5----4~----|-------4---2-4-2-|
----------------------------|-----------------|
--2-------------------------|--2--------------|
--0-------------------------|--0--------------|


                     |-3-| |-3-|
  S S S S E  S S S S S S S S S S
---------------------------5-7-8-|
---------------------5-7-8-------|
------5-7--------5-7-------------|
--5-7--------5-7-----------------|
---------------------------------|
---------------------------------|


                     |-3-| |-3-| |--3-| |--3-|
  S S S S E  S S S S S S S S S S S S  S S S  S
---------------------------5-7-8--------7-8-10-|
---------------------5-7-8-------7-8-10--------|
------5-7--------5-7---------------------------|
--5-7--------5-7-------------------------------|
-----------------------------------------------|
-----------------------------------------------|


                 |-3-| |-3-| |-3-|
  S S S S E  S S S S S S S S S S S
-----------------------------5-7-8-|
-----------------------5-7-8-------|
------5-7--------5-7-9-------------|
--5-7--------5-7-------------------|
-----------------------------------|
-----------------------------------|


                 |-3-| |-3-| |-3-| |--3-| |--3-|
  S S S S E  S S S S S S S S S S S S S  S S S  S
-----------------------------5-7-8--------7-8-10-|
-----------------------5-7-8-------7-8-10--------|
------5-7--------4-5-7---------------------------|
--5-7--------5-7---------------------------------|
-------------------------------------------------|
-------------------------------------------------|


                 |-3-| |-3-| |-3-|
  S S S S E  S S S S S S S S S S S
-----------------------------5-7-8-|
-----------------------5-7-8-------|
------5-7--------5-7-9-------------|
--5-7--------5-7-------------------|
-----------------------------------|
-----------------------------------|


                 |-3-| |-3-| |-3-| |--3-| |--3-|
  S S S S E  S S S S S S S S S S S S S  S S S  S
-----------------------------5-7-8--------7-8-10-|
-----------------------5-7-8-------7-8-10--------|
------5-7--------4-5-7---------------------------|
--5-7--------5-7---------------------------------|
-------------------------------------------------|
-------------------------------------------------|


                 |-3-| |-3-| |-3-|                           |-3-| |-3-| |-3-|
  S S S S E  S S S S S S S S S S S S S S S    S S S S E  S S S S S S S S S S S
-----------------------------5-7-8---------|-----------------------------5-7-8-|
-----------------------5-7-8---------------|-----------------------5-7-8-------|
------5-7--------5-7-9-----------------5-7-|------5-7--------5-7-9-------------|
--5-7--------5-7-------------------5-7-----|--5-7--------5-7-------------------|
-------------------------------------------|-----------------------------------|
-------------------------------------------|-----------------------------------|


  PM PM PM PM PM PM PM
  S  S  S  E  S  S  S      S  S  S S  S  S  S  S S  S  S S  S  S S  S
-----------------------|----------------------------------------------|
-----------------------|----------------------------------------------|
-----------------------|----------------------------------------------|
-----------------------|----------------------------------------------|
--2--2--2--2--2--2--2--|-------------------10--------------------9-10-|
--0--0--0--0--0--0--0--|--11-12-11-8-11-12----12-x-12-11-8-11-12------|


   S  S  S  S  S  S S  S S  S  S  S S  S S  S
----------------------------------------------|
----------------------------------------------|
----------------------------------------------|
-----------------------------------------9-10-|
--12--------------------------------9-10------|
-----12-11-12-11-12-9-12-9-12-11-12-----------|


  S S  S S S  S S S  S S S  S S S  S S
---------------------------------------|
---------------------------------------|
--9-7----------------------------------|
------10-9-7----7-9-10-9-7-------------|
-------------10------------10-9-7------|
----------------------------------10-8-|


  |--3-| |-3-| |-3-| |-3-| |--3-| |--3-| |--3-| |--3-|
  S S  S S S S S S S S S S S S  S S S  S S S  S S S  S
-----------------------------------------7-8-10-8-7----|
----------------------------------7-8-10------------10-|
---------------5-7-9-7-5---7-9-11----------------------|
---------5-7-9-----------9-----------------------------|
--7-9-10-----------------------------------------------|
-------------------------------------------------------|


  H         E   E   S  E.       Q     E   Q.        Q
----------------------------|--------10-------------------|
--8~-----------10---L-10b---|---L-----L--10pbr------8~----|
----------------------------|-----------------------------|
----------------------------|-----------------------------|
----------------------------|-----------------------------|
----------------------------|-----------------------------|


                                                             PM
  S  S S  S S S S  S S  S S  S  S  S  S  S     E   E   E  E  E
------------7-8-7--------------------------|--------------------|
-------8-10-------10-8---------------------|--------------------|
--9-11-----------------11-9----------------|--------------------|
----------------------------12-10----------|--------------------|
----------------------------------14-12----|--------------------|
----------------------------------------15-|--14--12--10--8--7--|


  H         E.     S S S S S S S S S S S S S S S S
----------------|----------------------------------|
----------------|----------------------------------|
----------------|----------------------------------|
----------------|----------------------------------|
----------------|--2-8-7-8-7-----8-7-8-6---8-7-8-7-|
--5~--------L---|--0---------0-0---------0---------|


  S S S S S S S S S S S S S S S S    S S S S S S S S S S S S S S S S
----------------------------------|----------------------------------|
----------------------------------|----------------------------------|
----------------------------------|----------------------------------|
----------------------------------|----------------------------------|
----8-7-8-7-----8-7-8-6---8-7-8-7-|----8-7-8-7-----8-7-8-6---8-7-8-7-|
--0---------0-0---------0---------|--0---------0-0---------0---------|


  S S S S S S S S S S S S S S S S    S  S S  S S S S  S S  S S S  S S  S S
----------------------------------|----------------------------------------|
----------------------------------|----------------------------------------|
----------------------------------|----------------------------------------|
----------------------------------|----10-9-10-9-----10-9-10-8---10-9-10-9-|
----8-7-8-7-----8-7-8-6---8-7-8-7-|----------------------------------------|
--0---------0-0---------0---------|--0-----------0-0-----------0-----------|


  S  S S  S S S S  S S  S S S  S S  S S
----------------------------------------|----|
----------------------------------------|----|
----------------------------------------|----|
----10-9-10-9-----10-9-10-8---10-9-10-9-|----|
----------------------------------------|----|
--0-----------0-0-----------0-----------|----|


                                                   T
  S S  S  S  S S S  S S  S S  S S S S S S S S S S  S S S
------------------------------------7-8-7-------8-14-8---|
---------------------------------------------------------|
--9---11-12-11---9----9-12-9------9-------9---9--------9-|
----9----------9---10--------10-7-----------7------------|
---------------------------------------------------------|
---------------------------------------------------------|


                                                   T
  S S  S  S  S S S  S S  S S  S S S S S S S S S S  S S S
------------------------------------7-8-7-------8-14-8---|
---------------------------------------------------------|
--9---11-12-11---9----9-12-9------9-------9---9--------9-|
----9----------9---10--------10-7-----------7------------|
---------------------------------------------------------|
---------------------------------------------------------|


  S S  S  S  S S S S S  S S S S S S  S S S S S S S S S
-------------------------------------------------------|
-------------------------------------------------------|
--9---11-12-11---9---9-11-9-------9-11-9-------6-9-6---|
----9----------9---7--------7-5-7--------7---7-------7-|
-------------------------------------------4-----------|
-------------------------------------------------------|


  S  S  S S S S S  S  S   S  S  S    S  S  S S S S S  S  S   S  S  S
----------------7-12-15s-19-15----|----------------7-12-15s-17-14----|
--------------8----------------17-|--------------8----------------15-|
------------9---------------------|------------9---------------------|
----------9-----------------------|----------9-----------------------|
-------10-------------------------|-------10-------------------------|
--8-12----------------------------|--8-12----------------------------|


  S  S  S S S S S  S  S   S  S  S    S  S  S S S S S  S  S
----------------7-12-15s-19-15----|----------------7-12-15-|
--------------8----------------17-|--------------8---------|
------------9---------------------|------------9-----------|
----------9-----------------------|----------9-------------|
-------10-------------------------|-------10---------------|
--8-12----------------------------|--8-12------------------|


   T     T     T         T     T     T         T
   S  S  S  S  S   S  S  S  S  S  S  S   S  S  S   S
--19p-0-15p-0-17p-14p-0-19p-0-15p-0-17p-14p-0--------|
----------------------------------------------19p-15-|
-----------------------------------------------------|
-----------------------------------------------------|
-----------------------------------------------------|
-----------------------------------------------------|


   T     T     T       T   T     T
   S  S  S  S  S   S   S   S  S  S  S   E  S  S S
--19p-0-15p-0-17p-14h-17p-15p-0-12p-0h-14--0-15-0-|
--------------------------------------------------|
--------------------------------------------------|
--------------------------------------------------|
--------------------------------------------------|
--------------------------------------------------|


   S  S   S  S  S  S  S  S  S  S  S  S  S  S  S  S
--14-15s-17-14----------14-15-17-15-14-------------|
---------------15----15----------------17-15-------|
------------------14-------------------------17-16-|
---------------------------------------------------|
---------------------------------------------------|
---------------------------------------------------|


   T     T     T         T     T     T         T
   S  S  S  S  S   S  S  S  S  S  S  S   S  S  S   S
--19p-0-15p-0-17p-14p-0-19p-0-15p-0-17p-14p-0--------|
----------------------------------------------19p-15-|
-----------------------------------------------------|
-----------------------------------------------------|
-----------------------------------------------------|
-----------------------------------------------------|


   T     T     T       T   T     T
   S  S  S  S  S   S   S   S  S  S  S   E  S  S S
--19p-0-15p-0-17p-14h-17p-15p-0-12p-0h-14--0-15-0-|
--------------------------------------------------|
--------------------------------------------------|
--------------------------------------------------|
--------------------------------------------------|
--------------------------------------------------|


   S  S   S  S  S  S  S  S  S  S  S  S  S  S  S  S
--14-15s-17-14----------14-15-17-15-14-------------|
---------------15----15----------------17-15-------|
------------------14-------------------------17-16-|
---------------------------------------------------|
---------------------------------------------------|
---------------------------------------------------|


   H          S  E   E.     S  S     H          S  S  S  S  E     S  S
---------------------------------|-------------------------------------|
---------------------------------|-------------------------------------|
--16~---------L-19--19br---17-16-|--14~---------L-14-16-17-17br--16-14-|
---------------------------------|-------------------------------------|
---------------------------------|-------------------------------------|
---------------------------------|-------------------------------------|


   T  T  T  T  T  T  T  T  T  T  T  T  T  T  T  T  T  T  T  T  T  T  T  T  T  T
--------------------------------------------------------------------------------|
--------------------------------------------------------------------------------|
--12-12-12-12-12-12-12-12-12-12-12-12-12-12-12-12-14-14-14-14-14-14-14-14-14-14-|
--------------------------------------------------------------------------------|
--------------------------------------------------------------------------------|
--------------------------------------------------------------------------------|


   T  T  T  T  T  T  T  T  T  T  T  T  T  T  T  T  E    S  Q       S
---------------------------------------------------------------------|
-------------------------------------------------------19------------|
--16-16-16-16-16-16-16-16-17-17-17-17-17-17-17-17-17b---L-17b~-----L-|
---------------------------------------------------------------------|
---------------------------------------------------------------------|
---------------------------------------------------------------------|


   |--3--|  |--3--|  |--3--|  |--3--|  |--3--|  |--3--|  |--3--|  |--3--|
   S  S  S  S  S  S  S  S  S  S  S  S  S  S  S  S  S  S  S  S  S  S  S  S
--15-12----------------------------12-15-12----------------------------12-|
--------13----------------------13----------13----------------------13----|
-----------12----------------12----------------12----------------12-------|
--------------14----------14----------------------14----------14----------|
-----------------15----15----------------------------15----15-------------|
--------------------15----------------------------------15----------------|


   |--3--|  |--3--|  |--3--|  |--3--|  |--3--|  |--3--|  |--3--|  |--3--|
   S  S  S  S  S  S  S  S  S  S  S  S  S  S  S  S  S  S  S  S  S  S  S  S
--15-12-------------------------12-15-15-12----------12-15-12-------------|
--------12-------------------12-------------12----12----------12----------|
-----------12-------------12-------------------12----------------12-------|
--------------14-------14-------------------------------------------14----|
-----------------15-15-------------------------------------------------15-|
--------------------------------------------------------------------------|


   |--3--|  |--3--|  |--3--|  |--3--|  |--3--|  |--3--|  |--3--|  |--3--|
   S  S  S  S  S  S  S  S  S  S  S  S  S  S  S  S  S  S  S  S  S  S  S  S
-----------------14-17-14----------------------------14-17-14-------------|
--------------15----------15----------------------15----------15----------|
-----------16----------------16----------------16----------------16-------|
--------16----------------------16----------16----------------------16----|
-----17----------------------------17----17----------------------------17-|
--17----------------------------------17----------------------------------|


   |-3-|  |--3--|  |--3--|  |--3--|  |-3-|  |--3--|  |--3--|  |--3--|
   E   S  S  S  S  S  S  S  S  S  S  E   S  S  S  S  S  S  S  S  S  S
------------------14--------------------------------15----------------|
---------------15----15--------------------------17----17-------------|
------------16----------16--------------------17----------17----------|
---------16----------------16--------------17----------------17-------|
------17----------------------17--------19----------------------19----|
--19-----------------------------20-20-----------------------------20-|


                                              T
   |-3-|  |--3--|  |--3--|  |--3--|  |--3--|  |--3--|  |--3--|  |--3--|
   E   S  S  S  S  S  S  S  S  S  S  S  S  S  S  S  S  S  S  S  S  S  S
------------------12----------------15----------------------------------|
---------------13----13----------13----15-19-20-19-15-------------------|
------------14----------14----14----------------------17-16-14-12-14-16-|
---------14----------------14-------------------------------------------|
------15----------------------------------------------------------------|
--17--------------------------------------------------------------------|


   |--3--|  |--3--|  |--3--|  3     |--3--|  |-3-|  |-3-| |--3-|
   S  S  S  S  S  S  S  S  S  E.    S  S  S  S S S  S S S S S  S
--13-------------------------------------13-----------------7-10-|
-----13-17-18-17-13-------------------10------------------8------|
--------------------15-14-12-10~---12-------------------7--------|
--------------------------------------------10-7------9----------|
-------------------------------------------------8-10------------|
-----------------------------------------------------------------|


   |--3-| |--3-|  |--3-| |--3--|  |-3-|  |--3--|  |--3--|  |--3--|
   S S  S S  S S  S S  S S  S  S  E   S  S  S  S  S  S  S  S  S  S
--12-8---------8-12-8-------------------------10-13-10----------10-|
-------10---10--------10-------------------11----------11----11----|
----------9--------------9--------------10----------------10-------|
---------------------------10--------12----------------------------|
------------------------------12-13--------------------------------|
-------------------------------------------------------------------|


   |--3--|  |--3--|  |--3--|  |--3--|  |--3--|  |--3--|  |--3--|  |--3--|
   S  S  S  S  S  S  S  S  S  S  S  S  S  S  S  S  S  S  S  S  S  S  S  S
--15-14-12----12-14-15-14-12-------------------------------------14-15-17-|
-----------15----------------15-13-12-17-15-13----------12-13-15----------|
-----------------------------------------------16-14-16-------------------|
--------------------------------------------------------------------------|
--------------------------------------------------------------------------|
--------------------------------------------------------------------------|


  E   S  S  S  S  S  S  S  S  S  S  S  S  S  S    E  E  H.
--0--------12-------17----------12----------12-|---------------------||
-----12-15----12-15----15-12-15----------14----|---------------------||
-----------------------------------12-15-------|---------------------||
-----------------------------------------------|---------------------||
-----------------------------------------------|--2------------------||
-----------------------------------------------|--0------------------||


Tablature Legend
----------------
L - tied note
x - dead note
g - grace note
(n) - ghost note
> - accentuded note
NH - natural harmonic
AH - artificial harmonic
TH - tapped harmonic
SH - semi harmonic
PH - pitch harmonic
h - hammer on
p - pull off
b - bend
br - bendRelease
pb - preBend
pbr - preBendRelease
brb - bendReleaseBend
\n/ - tremolo bar dip
\n - tremolo bar dive
-/n - tremolo bar Release up
/n\ - tremolo bar inverted dip
/n - tremolo bar return
-\n - tremolo bar Release down
S - shift slide
s - legato slide
/ -  slide into from below or out of upwards
\ -  slide into from above or out of downwards
~ - vibrato
W - wide vibrato
tr - trill
TP - tremolo picking
T - tapping
S - slap
P - pop
< - fade in
^ - brush up
v - brush down
comments
print report bad tab
22 comments total. Showing first comments.
+4 reply
C&C Magik wrote on February 12 2008, 05:42 pm

finally! thank you

+4 reply
Bottled Ink Co. wrote on February 12 2008, 06:18 pm

Dude, thanks so much....I hate getting excited about a tab then discovering it's only on Guitar Pro.

+1 reply
Kevin67 wrote on February 12 2008, 11:19 pm

thanks a lot man

I want to post or [tab]
guest
You may want to rate the tab now too:
select rating
Please do not post tabs as comments. Select "correction" instead!