Oops, an error
Loading. Please wait.

Sequoia Throne Bass Tab

ver3
ver3

Whole song

More versions @911Tabs.com
6,768 views 1 this week
7 commentsread comments
1 2 3 4 5
accurate
x 4
Autoscroll
+/-
esc
set tempo
stop
Contributor
Hey! There's an official Ultimate Guitar app which is ideal
for learning songs when you're away from computer. Get the app
WARNING: You are trying to view
                                    content from Ultimate-Guitar.com
                                    in an unauthorized application,
                                    which is prohibited.

                                    Please use an official Ultimate
                                    Guitar Tabs application for iPhone,
                                    iPad or Android to access legitimate
                                    chords, guitar, bass, and drum tabs
                                    from Ultimate-Guitar.com database.

                                    Type "ultimate guitar tabs" in Apple
                                    App Store's or Android Market's
                                    search to find the application.
Protest the hero
Sequioa Throne
I got an message asking to do this so, here it is. Enjoy

      E  E  H.              E  E  H.              Q     Q     
F#||---------------------|---------------------|-------------|
C#||---------------------|---------------------|-------------|
G#||---------------------|---------------------|-------------|
D#||--0------------------|--0------------------|--7\---------|
A#||---------------------|---------------------|-------------|


  S S S E  S S S S S S S    S S S E  S S S S S S S    S S S E  S S S S S S S  
-------------------------|-------------------------|-------------------------|
-------------------------|-------------------------|-------------------------|
-------------------------|-------------------------|-------------------------|
--0-0-0-0--0-0-0-0-0-----|--0-0-0-0--0-0-0-0-0-----|--0-0-0-0--0-0-0-0-0-----|
-------------------------|-------------------------|-------------------------|


                                                               |----3----|     
  S S S S S S S S S S S S    S S S E  S S S S S S S    S S S S Q    Q    Q     
--------------------------|-------------------------|-------------------------|
--------------------------|-------------------------|-------------------------|
--------------------------|-------------------------|-------------------------|
--0-0-0-0-0-0-0-0-0-0-----|--0-0-0-0--0-0-0-0-------|--0-0-0-0-0----0----0----|
--------------------------|-------------------------|-------------------------|


  S S S S S S S S    S S S S S S S S S S S S S S S S  
------------------|----------------------------------|
--------------0-2-|----------------------------------|
------0-1-0-1-----|----------------------------------|
--0-3-------------|--0-0-0-0-0-0-0-0-5-4-0-1-0-0-4-5-|
------------------|----------------------------------|


  S S S S S S S S S S S S S S S S    S S S S S S S S S S S S S S S S  
----------------------------------|----------------------------------|
--------------------------------2-|----------------------------------|
------------------0-2-3---0-2-3---|----------------------------------|
--0-0-0-0-0-0-0-0-------4---------|--0-0-0-0-0-0-0-0-5-4-0-1-0-0-4-5-|
----------------------------------|----------------------------------|


  S S S S S S S S S S S S S S S S    S E  E  S S S S S S S S S S S  
----------------------------------|--------------------------------|
----------------------------------|--------------------------------|
------------------------------5-7-|--------------------------------|
--0-0-0-0-0-0-0-0-------4-6-7-----|--0-0--0--0-0-0-5-4-0-1-0-0-4-5-|
------------------3-5-6-----------|--------------------------------|


  S E  E  S S S S S S S S S S S    S E  E  S S S S S S S E  S S  
--------------------------------|-------------------------------|
------------------------------2-|-------------------------------|
----------------0-2-3---0-2-3---|-------------------------------|
--0-0--0--0-0-0-------4---------|--0-0--0--0-0-0-5-4-0-1-0--4-5-|
--------------------------------|-------------------------------|


  S S S S S S S S S S S S S S S S            E.   E.  E  E  E  E  E   
----------------------------------|-------|--------------------------|
------------------------0-2-0-2-3-|-------|--------------------------|
--------------------2-3-----------|-------|------10---9--------------|
--------0-1-3-5-3-5---------------|-------|--7-----------7--7--7--5--|
--3-1-3---------------------------|-------|--------------------------|


  E.  E.  E  E.  E.  E     E.  E  S S S S S S S S S S S  
------------------------|-------------------------------|
------------------------|-------------------------------|
------------------------|-------------------------------|
--3---3---3--3---3---3--|--0---0--0-0-0-5-4-0-1-0-0-4-5-|
------------------------|-------------------------------|


  E.  E  S S S S S S S S S S S    E.  E  S S S S S S S E  S S  
-------------------------------|------------------------------|
-----------------------------2-|------------------------------|
---------------0-2-3---0-2-3---|------------------------------|
--0---0--0-0-0-------4---------|--0---0--0-0-0-5-4-0-1-0--4-5-|
-------------------------------|------------------------------|


  S S S S S S S S S S S S S S S S            E.   E.  E  E  E  E  E   
----------------------------------|-------|--------------------------|
------------------------0-2-0-2-3-|-------|--------------------------|
--------------------2-3-----------|-------|------10---9--------------|
--------0-1-3-5-3-5---------------|-------|--7-----------7--7--7--5--|
--3-1-3---------------------------|-------|--------------------------|


  E.  E.  E  E.  E.  E     E.   E.  E  E  E  E  E     E.  E.  E  E.  E.  E   
------------------------|--------------------------|------------------------|
------------------------|--------------------------|------------------------|
------------------------|------10---9--------------|------------------------|
--3---3---3--3---3---3--|--7-----------7--7--7--5--|--3---3---3--3---3---3--|
------------------------|--------------------------|------------------------|


  W                   W                   W                   W                 
-------------------|-------------------|-------------------|-------------------|
-------------------|-------------------|-------------------|-------------------|
-------------------|-------------------|-------------------|-------------------|
--4----------------|--0----------------|--4----------------|--0----------------|
-------------------|-------------------|-------------------|-------------------|


          Q     Q       S S S E  S S S S S S S    S S S E  S S S S S S S  
-------|-------------|-------------------------|-------------------------|
-------|-------------|-------------------------|-------------------------|
-------|-------------|-------------------------|-------------------------|
-------|--7\---------|--0-0-0-0--0-0-0-0-0-----|--0-0-0-0--0-0-0-0-0-----|
-------|-------------|-------------------------|-------------------------|


  S S S E  S S S S S S S    S S S S S S S S S S S S    S S S E  S S S S S S S  
-------------------------|--------------------------|-------------------------|
-------------------------|--------------------------|-------------------------|
-------------------------|--------------------------|-------------------------|
--0-0-0-0--0-0-0-0-0-----|--0-0-0-0-0-0-0-0---------|--0-0-0-0--0-0-0-0-------|
-------------------------|--------------------------|-------------------------|


  S S S E  S S S S S S S    S S S E  S S S S S S S    S S S S S S S S S S S S  
-------------------------|-------------------------|--------------------------|
-------------------------|-------------------------|--------------------------|
-------------------------|-------------------------|--------------------------|
--0-0-0-0--0-0-0-0-------|--0-0-0-0--0-0-0-0-------|--0-0-0-0-0-0-0-0---------|
-------------------------|-------------------------|--------------------------|


  E  E  H.              E.  E.  E  Q    Q       E.  E.  E  Q    Q     
---------------------|-----------------------|-----------------------|
---------------------|------5---4------------|------5---4------------|
---------------------|-----------------------|-----------------------|
--0------------------|--0----------5----3----|--0----------5----6----|
---------------------|-----------------------|-----------------------|


                                     |-3-| |-3-| |-3-|                          
  E.  E.  E  Q    Q       E.  E.  E  S S S S S S S S S    E.  E.  E  Q    Q     
-----------------------|-------------------------------|-----------------------|
------5---4------------|------5---4--------------------|------5---4------------|
-----------------------|-------------------------2-3-5-|-----------------------|
--0----------5----3----|--0----------------1-3-5-------|--0----------5----3----|
-----------------------|-------------1-3-4-------------|-----------------------|


  E.  E.  E  Q    Q       E.  E.  E  Q    Q     
-----------------------|-----------------------|
------5---4------------|------5---4------------|
-----------------------|-----------------------|
--0----------5----6----|--0----------5----3----|
-----------------------|-----------------------|


             |-3-| |-3-| |-3-| |-3-|                           
  E.  E.  E  S S S S S S S S S S S S    E  S E.  E  Q    Q     
-------------------------------------|------------------------|
------5---4--------------------2-3-5-|-------5---4------------|
-------------------------2-3-5-------|------------------------|
--0----------------1-3-5-------------|--0-----------5----3----|
-------------1-3-4-------------------|------------------------|


  E  S E.  E  Q    Q       E  S E.  E  Q    Q     
------------------------|------------------------|
-------5---4------------|-------5---4------------|
------------------------|------------------------|
--0-----------5----6----|--0-----------5----3----|
------------------------|------------------------|


              |-3-| |-3-| |-3-|       |-3-| |-3-| |-3-|  
  E  S E.  E  S S S S S S S S S E     S S S S S S S S S  
-----------------------------------|--------------------|
-------5---4--------------4-5-7----|--------------4-5-7-|
--------------------5-7-9----------|--------5-7-9-------|
--0-----------5-7-8----------------|--5-7-8-------------|
-----------------------------------|--------------------|


  E  S E.  E  Q    Q       E  S E.  E  Q    Q       E  S E.  E  Q    Q     
------------------------|------------------------|------------------------|
-------5---4------------|-------5---4------------|-------5---4------------|
------------------------|------------------------|------------------------|
--0-----------5----3----|--0-----------5----6----|--0-----------5----3----|
------------------------|------------------------|------------------------|


  E  S E.  E     E  E  E  E  E  E  E     E  E  E  E  E  E  E  E  E   
--------------|-----------------------|-----------------------------|
-------5---4--|-----------------------|-----------------------------|
--------------|-----2--------2-----0--|-----2--------2-----0-----2--|
--0-----------|--2--------2-----0-----|--2--------2-----0-----2-----|
--------------|-----------------------|-----------------------------|


  E  E  E  E  E  E  E     E  E  E  E  E  E  E  E  E     E  E  E  E  E  E  E   
-----------------------|-----------------------------|-----------------------|
-----------------------|-----------------------------|-----------------------|
-----2--------2-----0--|-----2--------2-----0-----2--|-----2--------2-----0--|
--2--------2-----0-----|--2--------2-----0-----2-----|--2--------2-----0-----|
-----------------------|-----------------------------|-----------------------|


  E  E  E  E  E  E  E  E  E     E  E  E  E  E  E  E  E  E   
-----------------------------|-----------------------------|
-----------------------------|-----------------------------|
-----2--------2-----0-----2--|-----2--------2-----0-----2--|
--2--------2-----0-----2-----|--2--------2-----0-----2-----|
-----------------------------|-----------------------------|


  E  E  E  E  E  E  E     S S S E  S S S    W                 
-----------------------|-----------------|-------------------|
-----------------------|-----------------|-------------------|
-----2--------2-----0--|-----------------|-------------------|
--2--------2-----0-----|--0-0-0-0--0-0-0-|--8----------------|
-----------------------|-----------------|-------------------|


  W                   S S S S S S S S S S S S S S S S  
-------------------|----------------------------------|
-------------------|----------------------------------|
-------------------|----------------------------------|
--5----------------|--0-0-0-0-0-0-0-0-0-0-0-0-0-0-0-0-|
-------------------|----------------------------------|


  S S S S S S S S S S S S S S S S    W                   W                 
----------------------------------|-------------------|-------------------|
----------------------------------|-------------------|-------------------|
----------------------------------|-------------------|-------------------|
--0-0-0-0-0-0-0-0-0-0-0-0-0-0-0-0-|--8----------------|--5----------------|
----------------------------------|-------------------|-------------------|


  S S S S S S S S S S S S S S S S    E  E  E  E  E     H        E.   
----------------------------------|-----------------|---------------|
----------0-2-0-------------------|--4--2-----------|---------------|
------2-3-------3-2-0-------------|--------5--3--2--|---------------|
--3-5-----------------3-2-0-------|-----------------|--5--------L---|
----------------------------3-1-0-|-----------------|---------------|


  E  E  H.                      S S S S S S S S S S S S S S S S  
---------------------|-------|----------------------------------|
---------------------|-------|----------------------------------|
---------------------|-------|----8-7-8-7-----8-7-8-6---8-7-8-7-|
--0------------------|-------|--0---------0-0---------0---------|
---------------------|-------|----------------------------------|


  S S S S S S S S S S S S S S S S    S S S S S S S S S S S S S S S S  
----------------------------------|----------------------------------|
----------------------------------|----------------------------------|
----8-7-8-7-----8-7-8-6---8-7-8-7-|----------------------------------|
--0---------0-0---------0---------|--0---------0-0---------0---------|
----------------------------------|----6-5-6-5-----6-5-6-4---6-5-6-5-|


  S S S S S S S S S S S S S S S S          
----------------------------------|-------|
----------------------------------|-------|
----------------------------------|-------|
--0---------0-0---------0---------|-------|
----6-5-6-5-----6-5-6-4---6-5-6-5-|-------|


  E  S S S S E  S S S S E  S S S S E  S S S S  
----------------------------------------------|
----------------------------------------------|
----------------------------------------------|
------------------------5--5-5-5-5-7--7-7-7-7-|
--5--5-5-5-5-5--5-5-5-5-----------------------|


  E  S S S S E  S S S S E  S S S S E  S S S S  
----------------------------------------------|
----------------------------------------------|
----------------------------------------------|
------------------------5--5-5-5-5-7--7-7-7-7-|
--5--5-5-5-5-5--5-5-5-5-----------------------|


  E  E  E  E  E  E  E  E  E  E  E  E     E.  S S S S S S E.   
--------------------------------------|----------------------|
--------------------------------------|----------------------|
--------------------------------------|----------------------|
--7--7--7--6--6--6--5--5--5--4--4--4--|----------------------|
--------------------------------------|--1---1-1-1-1-1-1-0---|


  E.  S S S S S S E.     E.  S S S S S S E.     E.  S S S S S S  
----------------------|----------------------|------------------|
----------------------|----------------------|------------------|
----------------------|----------------------|------------------|
----------------------|----------------------|------------------|
--1---1-1-1-1-1-1-3---|--1---1-1-1-1-1-1-0---|--1---1-1-1-1-1-1-|


  W                   W                   W                   W                 
-------------------|-------------------|-------------------|-------------------|
-------------------|-------------------|-------------------|-------------------|
-------------------|-------------------|-------------------|-------------------|
--5----------------|--L----------------|--L----------------|--0----------------|
-------------------|-------------------|-------------------|-------------------|


  W                   H        H           W                 
-------------------|--------------------|-------------------|
-------------------|--------------------|-------------------|
-------------------|--------------------|-------------------|
--L----------------|--5--------7--------|--8----------------|
-------------------|--------------------|-------------------|


  W                   W                   Q    Q    Q    Q     
-------------------|-------------------|----------------------|
-------------------|-------------------|----------------------|
-------------------|-------------------|----------------------|
--7----------------|--0----------------|--0----0----0----0----|
-------------------|-------------------|----------------------|


  S E  S S S S S S E  S S S S S    S E  S S S S S S E  S S S S S  
--------------------------------|--------------------------------|
--------------------------------|--------------------------------|
--3-3--3-3-3-3-3-3-3--3-3-3-3-3-|--------------------------------|
--------------------------------|--0-0--0-0-0-0-0-0-0--0-0-0-0-0-|
--------------------------------|--------------------------------|


  S E  S S S S S S E  S S S S S    S E  S S S S S S E  S S S S S  
--------------------------------|--------------------------------|
--------------------------------|--------------------------------|
--------------------------------|--------------------------------|
--------------------------------|--------------------------------|
--3-3--3-3-3-3-3-3-3--3-3-3-3-3-|--0-0--0-0-0-0-0-1-1--1-1-1-1-1-|


  S E  S S S S S S E  S S S S S    S E  S S S S S T T T T T T T T S E.   
--------------------------------|---------------------------------------|
--------------------------------|---------------------------------------|
--------------------------------|---------------------------------------|
--5-5--5-5-5-5-5-3-3--3-3-3-3-3-|--1-1--1-1-1-1-1-1-1-1-1-1-1-1-1-1-3---|
--------------------------------|---------------------------------------|


  S E  S S S S S S E  S S S S S    S E  S S S S S S E  S S S S S  
--------------------------------|--------------------------------|
--------------------------------|--------------------------------|
--------------------------------|--------------------------------|
--5-5--5-5-5-5-5-6-6--6-6-6-6-6-|--3-3--3-3-3-3-3-3-3--3-3-3-3-3-|
--------------------------------|--------------------------------|


  E  E  H.              E  E  H.             
---------------------|---------------------||
---------------------|---------------------||
---------------------|---------------------||
--0------------------|--0------------------||
---------------------|---------------------||
comments
print report bad tab
7 comments total. Showing first comments.
-1 reply
TheJManSays wrote on February 25 2008, 12:03 pm

Nice! But in the slow part (where it starts with the A for 3 measures), he's also playing some sort of natural harmonic melody. You can see it near the end of this vid: http://www.youtube.com/watch?v=qSDH2qSAe2U

0 reply
TheJManSays wrote on February 25 2008, 12:32 pm

I meant 3 measures of G#.

0 reply
Delta_Mike wrote on February 26 2008, 10:45 pm

looks like your right

I want to post or [tab]
guest
You may want to rate the tab now too:
select rating
Please do not post tabs as comments. Select "correction" instead!