Oops, an error
Loading. Please wait.

Sequoia Throne Tab

ver3
ver3

Solo

Whole song

Video

More versions @911Tabs.com
1,383 views 1 this week
3 commentsread comments
1 2 3 4 5
accurate
x 2
Autoscroll
+/-
esc
set tempo
stop
Contributor
Difficulty
intermediate
Hey! There's an official Ultimate Guitar app which is ideal
for learning songs when you're away from computer. Get the app
WARNING: You are trying to view
                                    content from Ultimate-Guitar.com
                                    in an unauthorized application,
                                    which is prohibited.

                                    Please use an official Ultimate
                                    Guitar Tabs application for iPhone,
                                    iPad or Android to access legitimate
                                    chords, guitar, bass, and drum tabs
                                    from Ultimate-Guitar.com database.

                                    Type "ultimate guitar tabs" in Apple
                                    App Store's or Android Market's
                                    search to find the application.
   Luke (Lead)- Guitar 1

   Tim (Rhythm) - Guitar 2

GUITAR IS IN STANDARD TUNING (E,A,D,G,B,E)
	

|----------------------17----------------------------||
|----17----15-17----15----15----15-17-------14-17----||
|-------16-------16----------16-------12-15----------||Guitar1
|-14-------------------------------------------------||
|----------------------------------------------------||
|----------------------------------------------------||
                                                     ||
|----------------------------------------------------||
|----------------------------------------------------||
|----------------------------------------------------||Guitar 2
|--2-------------------------------------------------||
|--2-------------------------------------------------||
|--0-------------------------------------------------||
   .                                                    


|----------------------17-------------15-17-15----15-||
|----17-------17----15----15----15-17----------17----||
|-------16-------16----------16----------------------||Guitar1
|-14-------14----------------------------------------||
|----------------------------------------------------||
|----------------------------------------------------||
                                                     ||
|----------------------------------------------------||
|----------------------------------------------------||
|----------------------------------------------------||Guitar 2
|--2-------------------------------------------------||
|--2-------------------------------------------------||
|--0-------------------------------------------------||
   .


|----------------------------------------------------|
|----------------------------------------------------|
|----------------------------------------------------|Guitar 2
|--2-------------------------------------------------|Chugging pattern over tapping
|--2-------------------------------------------------|
|--0-------------------------------------------------|
   .

|----------------------17----------------------------|
|----17----15-17----15----15----15-17-------14-17----|
|-------16-------16----------16-------12-15----------|Guitar1
|-14-------------------------------------------------|
|----------------------------------------------------|
|----------------------------------------------------|

|----------------------17-------------15-17-15-------|
|----17-------17----15----15----15-17----------17----|
|-------16-------16----------16----------------------|Guitar1
|-14-------14----------------------------------------|
|----------------------------------------------------|
|----------------------------------------------------|

|----------------------17----------------------------|
|----17----15-17----15----15----15-17-------14-17----|
|-------16-------16----------16-------12-15----------|Guitar1
|-14-------------------------------------------------|
|----------------------------------------------------|
|----------------------------------------------------|

|----------------------17-------------15-17-15-------|
|----17-------17----15----15----15-17----------17----|
|-------16-------16----------16----------------------|Guitar1
|-14-------14----------------------------------------|
|----------------------------------------------------|
|----------------------------------------------------|



|----------------------------------------------------|
|----------------------------------------------------|
|----------------------------------------------------|Guitar 1&2
|-2---2---2------------------------------------------|
|-2---2---2------------------------------------------|
|-0---0---0------------------------------------------|
  .   .   .
|----------------------------------------------------|
|----------------------------------------------------|
|----------------------------------------------------|Guitar 1&2
|---2-2-2-2-2-22-------------------------------------|
|---2-2-2-2-2-22-------------------------------------|
|---0-0-0-0-0-00---5----4----0----1----0----4----5---|
    . . . . . ..


|----------------------------------------------------|
|----------------------------------------------------|
|----------------------------------------------------|Guitar 1&2
|---2-2-2-2-2-22-------------------------------------|
|---2-2-2-2-2-22-----------------------------5---7---|
|---0-0-0-0-0-00-----5---7---8---4---5---7-----------|
    . . . . . ..
|----------------------------------------------------|
|----------------------------------------------------|
|----------------------------------------------------|Guitar 1&2
|---2-2-2-2-2-22-------------------------------------|
|---2-2-2-2-2-22-------------------------------------|
|---0-0-0-0-0-00---5----4----0----1----0----4----5---|
    . . . . . ..


|----------------------------------------------------||
|----------------------------------------------------||
|-------------------------------------------7---9----||Guitar 1
|---2-2-2-2-2-22----------------6---8---9------------||
|---2-2-2-2-2-22----5---7---8------------------------||
|---0-0-0-0-0-00-------------------------------------||
    . . . . . ..                                    ||
|----------------------------------------------------||
|----------------------------------------------------||
|----------------------------------------------------||Guitar 2
|---2-2-2-2-2-22----------------------------7---9----||
|---2-2-2-2-2-22----------------6---8---9------------||
|---0-0-0-0-0-00----5---7---8------------------------||
    . . . . . ..


|----------------------------------------------------|
|----------------------------------------------------|
|----------------------------------------------------|Guitar 1&2
|---2--2--2------------------------------------------|
|---2--2--2------------------------------------------|
|---0--0--0--------5----4----0----1----0----4----5---|
    .  .  .
|----------------------------------------------------|
|----------------------------------------------------|
|----------------------------------------------------|Guitar 1&2
|---2--2--2------------------------------------------|
|---2--2--2----------------------------------5---7---|
|---0--0--0----------5---7---8---4---5---7-----------|
    .  .  .
|----------------------------------------------------|
|----------------------------------------------------|
|----------------------------------------------------|
|---2--2--2------------------------------------------|Guitar 1&2
|---2--2--2------------------------------------------|
|---0--0--0-------5----4----0----1----0--------------|
    .  .  .


|----------------------------------------------------||
|----------------------------------------------------||
|----------------------------------------------------||Guitar 1
|--------------------------------7-9-10--9-10-12-----||
|-----------------5-7-8--7-8-10----------------------||
|---4-5-7--5-7-8-------------------------------------||
                                                     ||
|----------------------------------------------------||
|----------------------------------------------------||
|----------------------------------------------------||Guitar 2
|---------------------------------10-12-14-12-14-15--||
|----------------8-10-12-10-12-14--------------------||
|-7-8-10-8-10-12-------------------------------------||



|----------------------------------------------------|
|----------------------------------------------------|
|----------------------------------------------------|Guitar 1&2
|----2-----------------------------------------------|
|----2-----------------------------------------------|
|----0-----------------------------------------------|



|--------19-------17---------------------------------||
|--12-15----12-15----12-15-19-12-15-17-12-15---------||
|--------------------------------------------18\19---||Guitar 1
|----------------------------------------------------||
|----------------------------------------------------||
|----------------------------------------------------||
                                                     ||
|----------------------------------------------------||
|----------------------------------------------------||
|--4-------------------------------------------------||Guitar 2
|--4-------------------------------------------------||
|--2-------------------------------------------------||
|----------------------------------------------------||



|----------------------------------------------------||
|--------19-------17-------------------------17\19---||
|--12-15----12-15----12-15-19-12-15-16-12-15---------||Guitar 1
|----------------------------------------------------||
|----------------------------------------------------||
|----------------------------------------------------||
                                                     ||
|----------------------------------------------------||
|----------------------------------------------------||
|----------------------------------------------------||Guitar 2
|--5-------------------------------------------------||
|--5-------------------------------------------------||
|--3-------------------------------------------------||



|----------------------------------------------------|
|----------------------------------------------------|
|----------------------------------------------------|Guitar 1&2
|---2--2--2------------------------------------------|
|---2--2--2------------------------------------------|
|---0--0--0--------5----4----0----1----0----4----5---|
    .  .  .
|----------------------------------------------------|
|----------------------------------------------------|
|----------------------------------------------------|Guitar 1&2
|---2--2--2------------------------------------------|
|---2--2--2----------------------------------5---7---|
|---0--0--0----------5---7---8---4---5---7-----------|
    .  .  .
|----------------------------------------------------|
|----------------------------------------------------|
|----------------------------------------------------|
|---2--2--2------------------------------------------|Guitar 1&2
|---2--2--2------------------------------------------|
|---0--0--0-------5----4----0----1----0--------------|
    .  .  .


|----------------------------------------------------||
|----------------------------------------------------||
|----------------------------------------------------||Guitar 1
|--------------------------------7-9-10--9-10-12-----||
|-----------------5-7-8--7-8-10----------------------||
|---4-5-7--5-7-8-------------------------------------||
                                                     ||
|----------------------------------------------------||
|----------------------------------------------------||
|----------------------------------------------------||Guitar 2
|---------------------------------10-12-14-12-14-15--||
|----------------8-10-12-10-12-14--------------------||
|-7-8-10-8-10-12-------------------------------------||



|----------------------------------------------------|
|----------------------------------------------------|
|----------------------------------------------------|Guitar 1&2
|----2-----------------------------------------------|
|----2-----------------------------------------------|
|----0-----------------------------------------------|



|--------19-------17---------------------------------||
|--12-15----12-15----12-15-19-12-15-17-12-15---------||
|--------------------------------------------18\19---||Guitar 1
|----------------------------------------------------||
|----------------------------------------------------||
|----------------------------------------------------||
                                                     ||
|----------------------------------------------------||
|----------------------------------------------------||
|--4-------------------------------------------------||Guitar 2
|--4-------------------------------------------------||
|--2-------------------------------------------------||
|----------------------------------------------------||



|----------------------------------------------------||
|--------19-------17-------------------------17\19---||
|--12-15----12-15----12-15-19-12-15-16-12-15---------||Guitar 1
|----------------------------------------------------||
|----------------------------------------------------||
|----------------------------------------------------||
                                                     ||
|----------------------------------------------------||
|----------------------------------------------------||
|----------------------------------------------------||Guitar 2
|--5-------------------------------------------------||
|--5-------------------------------------------------||
|--3-------------------------------------------------||




|--------19-------17---------------------------------||
|--12-15----12-15----12-15-19-12-15-17-12-15---------||
|--------------------------------------------18\19---||Guitar 1
|----------------------------------------------------||
|----------------------------------------------------||
|----------------------------------------------------||
                                                     ||
|----------------------------------------------------||
|----------------------------------------------------||
|--4-------------------------------------------------||Guitar 2
|--4-------------------------------------------------||
|--2--------------------4-----------5----------------||
|----------------------------------------------------||



|----------------------------------------------------||
|--------19-------17-------------------------17\19---||
|--12-15----12-15----12-15-19-12-15-16-12-15---------||Guitar 1
|----------------------------------------------------||
|----------------------------------------------------||
|----------------------------------------------------||
                                                     ||
|----------------------------------------------------||
|----------------------------------------------------||
|----------------------------------------------------||Guitar 2
|--5-------------------------------------------------||
|--5-------------------------------------------------||
|--3-------------------------------------------------||



|-------16------14-----------------------------------||
|--9-12----9-12----9-12-16-9-12-14-9-12--------------||
|---------------------------------------15\16--------||Guitar 1
|----------------------------------------------------||
|----------------------------------------------------||
|----------------------------------------------------||
                                                     ||
|----------------------------------------------------||
|----------------------------------------------------||
|----------------------------------------------------||Guitar 2
|--6-------------------------------------------------||
|--6-------------------------------------------------||
|--4-------------------------------------------------||



|----------------------------------------------------||
|-------16------14----------------------14\16--------||
|--9-13----9-13----9-13-16-9-13-15-9-13--------------||Guitar 1
|----------------------------------------------------||
|----------------------------------------------------||
|----------------------------------------------------||
                                                     ||
|----------------------------------------------------||
|----------------------------------------------------||
|----------------------------------------------------||Guitar 2
|--2-------------------------------------------------||
|--2-------------------------------------------------||
|--0-------------------------------------------------||



|-------16------14-----------------------------------||
|--9-12----9-12----9-12-13-9-12-16-9-12-14-9-12------||
|-----------------------------------------------15\16||Guitar 1
|----------------------------------------------------||
|----------------------------------------------------||
|----------------------------------------------------||
                                                     ||
|----------------------------------------------------||
|----------------------------------------------------||
|----------------------------------------------------||Guitar 2
|--6-------------------------------------------------||
|--6----------------------------6------------7-------||
|--4-------------------------------------------------||



|----------------------------------------------------||
|-------16------14----------------------14\16--------||
|--9-13----9-13----9-13-16-9-13-15-9-13--------------||Guitar 1
|----------------------------------------------------||
|----------------------------------------------------||
|----------------------------------------------------||
                                                      |
|----------------------------------------------------||
|----------------------------------------------------||
|----------------------------------------------------||Guitar 2
|--2-------------------------------------------------||
|--2-------------------------------------------------||
|--0-------------------------------------------------||



|----------------------17-------------15-17-15----15-||
|----17-------17----15----15----15-17----------17----||
|-------16-------16----------16----------------------||Guitar1
|-14-------14----------------------------------------||
|----------------------------------------------------||
|----------------------------------------------------||
                                                     ||
|----------------------------------------------------||
|----------------------------------------------------||
|----------------------------------------------------||Guitar 2
|-2------------------------------------------------2-||
|-2------------------------------------------------2-||
|-0------------------------------------------------0-||



|----------------------------------------------------|
|----------------------------------------------------|
|----------------------------------------------------|Guitar 1&2
|---2------------------------------------------------|Chugging
|---2------------------------------------------------|
|---0------------------------------------------------|
    .


|-----------------5-------------------5--------------|
|-----------------5-------------------5--------------|
|-----------------5-------------------5--------------|Guitar 1&2
|------2----------5--------2----------5--------------|Weird rock part
|------2----------5--------2----------5--------------|
|------0-------------------0-------------------------|
       .                   .


|----------------------------------------------------||
|----------------------------------------------------||
|----------------------------------------------------||Guitar 1
|-------9----7-------------------9----7--------------||
|----------------------------------------------------||
|--0--------------8----7----0--------------9----1 ---||
                                                     ||
|----------------------------------------------------||
|----------------------------------------------------||
|----------------------------------------------------||Guitar 2
|--2----5----4--------------2----5----4--------------||
|--2------------------------2------------------------||
|--0--------------5----3----0--------------6----7----||



|----------------------------------------------------||
|----------------------------------------------------||
|----------------------------------------------------||Guitar 1
|-------9----7-------------------9----7--------------||
|----------------------------------------------------||
|--0--------------8----7----0--------------9----1 ---||
                                                     ||
|----------------------------------------------------||
|----------------------------------------------------||
|----------------------------------------------------||Guitar 2
|--2----5----4--------------2----5----4--------------||
|--2------------------------2------------------------||
|--0--------------5----3----0--------------6----7----||



|----------------------------------------------------||
|--------------------------------------7--8--10------||
|----------------------------5--7--9-----------------||Guitar 1
|---------9----7----5--7--9--------------------------||
|----------------------------------------------------||
|----0-----------------------------------------------||
                                                     ||
|----------------------------------------------------||
|----------------------------------------------------||
|----------------------------------------------------||Guitar 2
|----2----5----4-----------------------4--5--7-------||
|----2-----------------------3--5--7-----------------||
|----0--------------3--5--7--------------------------||



|----------------------------------------------------||
|----------------------------------------------------||
|----------------------------------------------------||Guitar 1
|-------9----7-------------------9----7--------------||
|----------------------------------------------------||
|--0--------------8----7----0--------------9----1 ---||
                                                     ||
|----------------------------------------------------||
|----------------------------------------------------||
|----------------------------------------------------||Guitar 2
|--2----5----4--------------2----5----4--------------||
|--2------------------------2------------------------||
|--0--------------5----3----0--------------6----7----||
 

|-------------------------------------7-8-10---------||
|------------------------------7-8-10----------------||
|------------------------5-7-9-----------------------||Guitar 1
|----9-7-------9-7-5-7-9-----------------------------||
|----------------------------------------------------||
|--0-----8-7-0---------------------------------------||
                                                     ||
|----------------------------------------------------||
|----------------------------------------------------||
|-------------------------------------4-5-7----------||Guitar 2
|--2-5-4-----2-5-4-------------4-5-7-----------------||
|--2---------2-----------3-5-7-----------------------||
|--0-----5-3-0-----3-5-7-----------------------------||



|----------------------------------------------------||
|----------------------------------------------------||
|----------------------------------------------------||Guitar 1
|-----9-7p9h7---10---9-------9-7p9h7-----10----12----||
|----------------------------------------------------||
|--0---------------------0---------------------------||
                                                     ||
|----------------------------------------------------||
|----------------------------------------------------||
|----------------------------------------------------||Guitar 2
|--2--5-4p5h4------------2---5-4p5h4-----10----12----||
|--2---------------------2---------------------------||
|--0------------5----3---0---------------------------||






|-----------------------------------------------------7-8-10-||
|---------------------------------------7-8-10-7-8-10--------||
|---------------------------5-7-9-5-7-9----------------------||Guitar 2
|---9-7p9h7-------9-7-5-7-9----------------------------------||
|------------------------------------------------------------||
|-0---------5-3-0--------------------------------------------||

|------------------------------------------------------------||
|------------------------------------------------------------||
|-----------------------------------------------------4-5-7--||Guitar 1
|-2-5-4p5h4-----2-5-4-------------4-5-7--------4-5-7---------||
|-2-------------2-----------3-5-7-------3-5-7----------------||
|-0---------5-3-0-----3-5-7----------------------------------||



|------------------------------------------5-7-8-----||
|----------------------------------5-7-8-------------||
|----------4-5-7-----------4-5-7---------------------||Guitar 1
|--4-5-7-----------4-5-7-----------------------------||
|----------------------------------------------------||
|----------------------------------------------------||
                                                     ||
|----------------------------------------------------||
|----------------------------------------------------||
|----------------------------------------------------||Guitar 2
|----------------------------------------------------||
|----------2---------------2---------------0---------||
|--2---------------2---------------0-----------------||



|--------------------------------5-7-8--------7-8-10-||
|--------------------------5-7-8-------7-8-10--------||
|--------4-5-7-------4-5-7---------------------------||Guitar 1
|--4-5-7-------4-5-7---------------------------------||
|----------------------------------------------------||
|----------------------------------------------------||
                                                     ||
|----------------------------------------------------||
|----------------------------------------------------||
|----------------------------------------------------||Guitar 2
|----------------------------------------------------||
|--------2-----------2-----------0------------2------||
|--2-----------2-----------0-----------2-------------||



|------------------------------------------5-7-8-----||
|----------------------------------5-7-8-------------||
|----------4-5-7-----------4-5-7---------------------||Guitar 1
|--4-5-7-----------4-5-7-----------------------------||
|----------------------------------------------------||
|----------------------------------------------------||
                                                     ||
|----------------------------------------------------||
|----------------------------------------------------||
|----------------------------------------------------||Guitar 2
|----------------------------------------------------||
|----------2---------------2---------------0---------||
|--2---------------2---------------0-----------------||



|--------------------------------5-7-8--------7-8-10-||
|--------------------------5-7-8-------7-8-10--------||
|--------4-5-7-------4-5-7---------------------------||Guitar 1
|--4-5-7-------4-5-7---------------------------------||
|----------------------------------------------------||
|----------------------------------------------------||
                                                     ||
|----------------------------------------------------||
|----------------------------------------------------||
|----------------------------------------------------||Guitar 2
|----------------------------------------------------||
|--------2-----------2-----------0------------2------||
|--2-----------2-----------0-----------2-------------||



|------------------------------------------5-7-8-----||
|----------------------------------5-7-8-------------||
|----------4-5-7-----------4-5-7---------------------||Guitar 1
|--4-5-7-----------4-5-7-----------------------------||
|----------------------------------------------------||
|----------------------------------------------------||
                                                     ||
|----------------------------------------------------||
|----------------------------------------------------||
|----------------------------------------------------||Guitar 2
|----------------------------------------------------||
|----------2---------------2---------------0---------||
|--2---------------2---------------0-----------------||



|--------------------------------5-7-8--------7-8-10-||
|--------------------------5-7-8-------7-8-10--------||
|--------4-5-7-------4-5-7---------------------------||Guitar 1
|--4-5-7-------4-5-7---------------------------------||
|----------------------------------------------------||
|----------------------------------------------------||
                                                     ||
|----------------------------------------------------||
|----------------------------------------------------||
|----------------------------------------------------||Guitar 2
|----------------------------------------------------||
|--------2-----------2-----------0------------2------||
|--2-----------2-----------0-----------2-------------||



|------------------------------------------5-7-8-----||
|----------------------------------5-7-8-------------||
|----------4-5-7-----------4-5-7---------------------||Guitar 1
|--4-5-7-----------4-5-7-----------------------------||
|----------------------------------------------------||
|----------------------------------------------------||
                                                     ||
|----------------------------------------------------||
|----------------------------------------------------||
|----------------------------------------------------||Guitar 2
|----------------------------------------------------||
|----------2---------------2---------------0---------||
|--2---------------2---------------0-----------------||



|--------------------------------5-7-8--------7-8-10-||
|--------------------------5-7-8-------7-8-10--------||
|--------4-5-7-------4-5-7---------------------------||Guitar 1
|--4-5-7-------4-5-7---------------------------------||
|----------------------------------------------------||
|----------------------------------------------------||
                                                     ||
|----------------------------------------------------||
|----------------------------------------------------||
|----------------------------------------------------||Guitar 2
|----------------------------------------------------||
|--------2-----------2-----------0------------2------||
|--2-----------2-----------0-----------2-------------||



|----------------------------------------------------||
|----------------------------------------------------||
|----------------------------------------------------||Guitar 1
|---2-2-2-22-2--------------2------------------------||
|---2-2-2-22-2--------------2------------------------||
|---0-0-0-00-0--------------0------------------------||
    . . . .. .                                       ||
|----------------------------------------------------||
|----------------------------------------------------||
|---------------------------5------------------------||Guitar 2
|---2-2-2-22-2--------------3------------------------||
|---2-2-2-22-2--------------3------------------------||
|---0-0-0-00-0---------------------------------------||
    . . . .. .


|----------------------------------------------------||
|----------------------------------------------------||
|----------------------------------------------------||Guitar 1
|---------------------------------------------4--5---||
|---3--7--6--3--6--7--3--7--3--7--6--3--6--7---------||
|----------------------------------------------------||
                                                     ||
|----------------------------------------------------||
|----------------------------------------------------||
|---5----------5------------5-----------5------------||Guitar 2
|---5----------5------------5-----------5------------||
|---3----------3------------3-----------3------------||
|----------------------------------------------------||



|----------------------------------------------------||
|----------------------------------------------------||
|---------------------------------------------4--5---||Guitar 1
|---------------------------------------4--5---------||
|---0--7--6--0--6--7--0--7--0--7--6--7---------------||
|----------------------------------------------------||
                                                     ||
|----------------------------------------------------||
|----------------------------------------------------||
|---2-----------2------------2-----------2-----------||Guitar 2
|---2-----------2------------2-----------2-----------||
|---0-----------0------------0-----------0-----------||
|----------------------------------------------------||


|----------------------------------------------------||
|----------------------------------------------------||
|---9--7--5-----------------5------------------------||Guitar 1
|------------9--7--5--7--9-----9--7--5---------------||
|---------------------------------------9--7--5------||
|------------------------------------------------8---||
                                                     ||
|----------------------------------------------------||
|----------------------------------------------------||
|----------------------------------------------------||Guitar 2
|---2---2---2----2---2--2---2--2---2----2----2--2----||
|---2---2---2----2---2--2---2--2---2----2----2--2----||
|---0---0---0----0---0--0---0--0---0----0----0--0----||
    .   .   .    .   .  .   .  .   .    .    .  .


|----------------------------------------------------||
|----------------------------------------------------||
|---------------------------------5--7--9--7--5------||Guitar 1
|------------5--7--5-----5--7--9-----------------9---||
|---5--7--9-----------9------------------------------||
|----------------------------------------------------||
                                                     ||
|----------------------------------------------------||
|----------------------------------------------------||
|----------------------------------------------------||Guitar 2
|---2---2---2----2---2--2---2--2---2----2----2--2----||
|---2---2---2----2---2--2---2--2---2----2----2--2----||
|---0---0---0----0---0--0---0--0---0----0----0--0----||
    .   .   .    .   .  .   .  .   .    .    .  .

|-----------------------------------10---------------||
|------------7--8--10-8-8-10--10\12------10\12/10--8-||
|---5--7--9------------------------------------------||Guitar 1
|----------------------------------------------------||
|----------------------------------------------------||
|----------------------------------------------------||
                                                     ||
|----------------------------------------------------||
|----------------------------------------------------||
|---------------------5----------2----------2--------||Guitar 2
|---------------------5----------2----------2--------||
|---------------------3----------0----------0--------||
|----------------------------------------------------||


|---------5-7--8--7--5------------------------------------||
|-5-7--8----------------8--7--5---------------------------||
|-------------------------------7--5-4--------------------||Guitar 1
|--------------------------------------7--5-4-------------||
|---------------------------------------------7--5-3------||
|----------------------------------------------------7--5-||
                                                          ||
|---------8-10-12-10-12-----------------------------------||
|-8-10-12---------------12-10-8---------------------------||
|-------------------------------11-9-7--------------------||Guitar 2
|--------------------------------------10-9-7-------------||
|---------------------------------------------10-9-7------||
|----------------------------------------------------10-8-||


|----------------------------------------------------||
|----------------------------------------------------||
|----------------------------------------------------||Guitar 1
|----------------------------------------------------||
|------8--7--8--7--------8--7--8--6-----8--7--8--7---||
|---0--------------0--0--------------0---------------||
    .              .  .              .               ||       Play Three Times
|----------------------------------------------------||
|----------------------------------------------------||
|----------------------------------------------------||Guitar 2
|----------------------------------------------------||
|------8--7--8--7--------8--7--8--6-----8--7--8--7---||
|---0--------------0--0--------------0---------------||
    .              .  .              .


|----------------------------------------------------||
|----------------------------------------------------||
|----------------------------------------------------||Guitar 1
|----------------------------------------------------||
|------15-14-15-14-------15-14-15-13----15-14-15-14--||
|---0--------------0--0--------------0---------------||
    .              .  .              .               ||   Play Twice
|----------------------------------------------------||
|----------------------------------------------------||
|----------------------------------------------------||Guitar 2
|----------------------------------------------------||
|------8--7--8--7--------8--7--8--6-----8--7--8--7---||
|---0--------------0--0--------------0---------------||
    .              .  .              .


|-----------------------------------------------14-------||
|-----------------------------------13-------13----13----||
|-----------12----------12-------16-------14----------14-||Guitar 1
|--------14----------14-------14-------13----------------||
|-----14----------15-------12----------------------------||
|--12----------12----------------------------------------||
                                                         ||PLAY TWICE
|--------------------------------------------------------||
|--------------------------------------------------------||
|--------------------------------------------------------||Guitar 2
|--------------------------------------------------------||
|--------------------------------------------------------||sorry but I couldn't figure this
|--------------------------------------------------------||part out for the second guitar


|----------------------------------------------------||
|----------------------------------------------------||
|-----------12-----------11-----------11----------9--||Guitar 1
|--------14-----------13-----------12----------11----||
|-----14-----------14-----------12----------12-------||
|--12-----------11-----------10-----------9----------||
                                                     ||
|----------------------------------------------------||
|----------------------------------------------------||
|--9------------9------------7------------7----------||Guitar 2
|--9------------9------------7------------7----------||
|--7------------6------------5------------4----------||
|--0--0-0-0-0-0-0--0-0-0-0-0----0-0-0-0-0----0-0-0-0-||
      . . . . .    . . . . .    . . . . .    . . . .     


|---------------------12-15\19-15-----------------------12-15\17-14----||
|------------------13-------------17-----------------13-------------15-||
|-------------9\12------------------------------9\12-------------------||Guitar 1
|----------10--------------------------------10------------------------||
|-------10--------------------------------10---------------------------||
|--8-12------------------------------8-12------------------------------||
                                                                       ||
|----------------------------------------------------------------------||
|----------------------------------------------------------------------||
|--5------------------------5--------5-----------------------7---------||Guitar 2
|--5------------------------5--------5-----------------------7---------||
|--3-3-3-3-3-3-3-3-3-3-3-3--2-2-2-2--3-3-3-3-3-3-3-3-3-3-3-3-5-5-5-5-5-||
|----------------------------------------------------------------------||


|---------------------12-15\19-15-----------------------12-15\17-14----||
|------------------13-------------17-----------------13-------------15-||
|-------------9\12------------------------------9\12-------------------||Guitar 1
|----------10--------------------------------10------------------------||
|-------10--------------------------------10---------------------------||
|--8-12------------------------------8-12------------------------------||
                                                                       ||
|----------------------------------------------------------------------||
|----------------------------------------------------------------------||
|--5------------------------5--------5-----------------------7---------||Guitar 2
|--5------------------------5--------5-----------------------7---------||
|--3-3-3-3-3-3-3-3-3-3-3-3--2-2-2-2--3-3-3-3-3-3-3-3-3-3-3-3-5-5-5-5-5-||
|----------------------------------------------------------------------||



|--19-0-15-0-17----19-0-15-0-17----14-----||
|---------------19--------------19----15--||
|-----------------------------------------||Guitar 1
|-----------------------------------------||
|-----------------------------------------||
|-----------------------------------------||
                                          ||
|--15-0-12-0-14-10-15-0-12-0-14-10-10-----||
|-------------------------------------12--||
|-----------------------------------------||Guitar 2
|-----------------------------------------||Switches to cleaner sound
|-----------------------------------------||
|-----------------------------------------||



|--19-0-15-0-17----15----14----15--||
|---------------19----17----15-----||
|----------------------------------||Guitar 1
|----------------------------------||
|----------------------------------||
|----------------------------------||
                                   ||
|--15-0-12-0-14-10-12----10----12--||
|---------------------13----12-----||
|----------------------------------||Guitar 2
|----------------------------------||
|----------------------------------||
|----------------------------------||



|--------15\17-14----------14-15-17-15-14-------------||
|--12\13----------15----15----------------17-15-------||
|--------------------14-------------------------17-16-||Guitar 1
|-----------------------------------------------------||
|-----------------------------------------------------||
|-----------------------------------------------------||
                                                      ||
|--------12\14-10----------10-12-14-12-10-------------||
|---8\10----------12----12----------------13-12-10----||
|--------------------11----------------------------12-||Guitar 2
|-----------------------------------------------------||
|-----------------------------------------------------||
|-----------------------------------------------------||


|--19-0-15-0-17----19-0-15-0-17----14-----||
|---------------19--------------19----15--||
|-----------------------------------------||Guitar 1
|-----------------------------------------||
|-----------------------------------------||
|-----------------------------------------||
                                          ||
|--15-0-12-0-14-10-15-0-12-0-14-10-10-----||
|-------------------------------------12--||
|-----------------------------------------||Guitar 2
|-----------------------------------------||
|-----------------------------------------||
|-----------------------------------------||


|--19-0-15-0-17----15----14----15--||
|---------------19----17----15-----||
|----------------------------------||Guitar 1
|----------------------------------||
|----------------------------------||
|----------------------------------||
                                   ||
|--15-0-12-0-14-10-12----10----12--||
|---------------------13----12-----||
|----------------------------------||Guitar 2
|----------------------------------||
|----------------------------------||
|----------------------------------||


|--------15\17-14----------14-15-17-15-14-------------||
|--12\13----------15----15----------------17-15-------||
|--------------------14-------------------------17-16-||Guitar 1
|-----------------------------------------------------||
|-----------------------------------------------------||
|-----------------------------------------------------||
                                                      ||
|--------12\14-10----------10-12-14-12-10-------------||
|---8\10----------12----12----------------13-12-10----||
|--------------------11----------------------------12-||Guitar 2
|-----------------------------------------------------||
|-----------------------------------------------------||
|-----------------------------------------------------||



|----------------------------------------------------||
|----------------------------------------------------||
|--12-16--16B17B16--14-12-11-12-14--14B16B14--12--11-||Guitar 1
|----------------------------------------------------||
|----------------------------------------------------||
|----------------------------------------------------||
                                                     ||
|----------------------------------------------------||
|--12-15--15B17B15--13-12-10-12-13--13B15B13--12--10-||
|----------------------------------------------------||Guitar 2
|----------------------------------------------------||
|----------------------------------------------------||
|----------------------------------------------------||



|--------------------------------------15------------||
|---8*---10*---12*---13*---15*--15B17-------15B17----||
|----------------------------------------------------||Guitar 1
|----------------------------------------------------||
|----------------------------------------------------||
|----------------------------------------------------||
                                                     ||
|----------------------------------------------------||
|-------------------------------------16-------------||
|---9*----11*---12*---14*----14B16----------14B16----||Guitar 2
|----------------------------------------------------||
|----------------------------------------------------||
|----------------------------------------------------||


|----15--12--------------------------------------12--||
|------------13------------------------------13------||
|----------------12----------------------12----------||Guitar 1
|--------------------14--------------14--------------||
|------------------------15--10--15------------------||
|----------------------------------------------------||
                                                     ||PLAY TWICE
|----------------------------------------------------||
|----------------------------------------------------||
|---5--------------------5---------------------------||Guitar 2
|---5--------------------5---------------------------||
|---3--------------------3---------------------------||
|----------------------------------------------------||



|----19--15--------------------------------------15--||
|------------17------------------------------17------||
|----------------16----------------------16----------||Guitar 1
|--------------------17--------------17--------------||
|------------------------19--14--19------------------||
|----------------------------------------------------||
                                                     ||
|----------------------------------------------------||
|----------------------------------------------------||
|----------------------------------------------------||Guitar 2
|----2-------------------2---------------------------||
|----2-------------------2---------------------------||
|----0-------------------0---------------------------||



|----19--15--------------15--19--15------------------||
|------------17------17--------------17--------------||
|----------------16----------------------16----------||Guitar 1
|--------------------------------------------17------||
|------------------------------------------------19--||
|----------------------------------------------------||
                                                     ||
|----------------------------------------------------||
|----------------------------------------------------||
|----------------------------------------------------||Guitar 2
|----2------------------2----------------------------||
|----2------------------2----------------------------||
|----0------------------0----------------------------||



|------------------------14--17--14------------------||
|--------------------15--------------15--------------||
|----------------14----------------------14----------||Guitar 1
|------------16------------------------------16------||
|----12--17--------------------------------------17--||
|----------------------------------------------------||
                                                     ||PLAY TWICE
|----------------------------------------------------||
|----------------------------------------------------||
|----7---------------------7-------------------------||Guitar 2
|----7---------------------7-------------------------||
|----5---------------------5-------------------------||
|----------------------------------------------------||



|-----------------------10--14--10-------------------||
|-------------------12--------------12---------------||
|---------------11----------------------11-----------||Guitar 1
|-----------12------------------------------12-------||
|----9--14--------------------------------------14---||
|----------------------------------------------------||
                                                     ||
|----------------------------------------------------||
|----------------------------------------------------||
|----5-----------------------5-----------------------||Guitar 2
|----5-----------------------5-----------------------||
|----2-----------------------2-----------------------||
|----------------------------------------------------||



|------------------------12--15--12------------------||
|--------------------13--------------13--------------||
|----------------12----------------------12----------||Guitar 1
|------------14------------------------------14------||
|----10--15--------------------------------------15--||
|----------------------------------------------------||
                                                     ||
|----------------------------------------------------||
|----------------------------------------------------||
|----5----------------------5------------------------||Guitar 2
|----5----------------------5------------------------||
|----3----------------------3------------------------||
|----------------------------------------------------||



|----------------------8--12--8-------------8--------||
|------------------10------------10-----10-----------||
|---------------9--------------------9---------------||Guitar 1
|-----------10---------------------------------------||
|----7--12-------------------------------------------||
|----------------------------------------------------||
                                                     ||
|----------------------------------------------------||
|----------------------------------------------------||
|----------------------------------------------------||Guitar 2
|----7---------------------7-------------------------||
|----7---------------------7-------------------------||
|----5---------------------5-------------------------||



|----14--10--13--14--13--10--------------------------||
|----------------------------13--12------------------||
|------------------------------------14--12----------||Guitar 1
|----------------------------------------------------||
|----------------------------------------------------||
|----------------------------------------------------||
                                                     ||
|----------------------------------------------------||
|----------------------------------------------------||
|----------------------------------------------------||Guitar 2
|----5---------------------5-------------------------||
|----5---------------------5-------------------------||
|----3---------------------3-------------------------||



|----13--8--12--13--12--8----------------------------||
|--------------------------12--10--------------------||
|----------------------------------12--10------------||Guitar 1
|----------------------------------------------------||
|----------------------------------------------------||
|----------------------------------------------------||
                                                     ||
|----------------------------------------------------||
|----------------------------------------------------||
|----------------------------------------------------||Guitar 2
|----3----------------3------------------------------||
|----3----------------3------------------------------||
|----1----------------1------------------------------||



|----8--5--------------------------7--10-------------||
|----------6--------------------8--------------------||
|-------------5--------------7-----------------------||Guitar 1
|----------------7--------9--------------------------||
|-------------------8\10-----------------------------||
|----------------------------------------------------||
                                                     ||
|----------------------------------------------------||
|----------------------------------------------------||
|----------------------------------------------------||Guitar 2
|----3---3---3---3---3---3---3---3---5---------------||
|----3---3---3---3---3---3---3---3---5---------------||
|----1---1---1---1---1---1---1---1---3---------------||
     .   .   .   .   .   .   .   .


|----12--8-----------------------------------8-------||
|-----------10---------------------------10----------||
|---------------9---------------------9--------------||Guitar 1
|------------------10-------------10-----------------||
|----------------------12--7--12---------------------||
|----------------------------------------------------||
                                                     ||
|----------------------------------------------------||
|----------------------------------------------------||
|----------------------------------------------------||Guitar 2
|----7-------------------7-------7-------------------||
|----7-------------------7-------7-------------------||
|----5-------------------5-------5-------------------||


|----13--10-------------------------------------10---||
|------------11-----------------------------11-------||
|----------------10---------------------10-----------||Guitar 1
|--------------------12-------------12---------------||
|------------------------13--8--13-------------------||
|----------------------------------------------------||
                                                     ||
|----------------------------------------------------||
|----------------------------------------------------||
|----------------------------------------------------||Guitar 2
|----8--------------------8---------8----------------||
|----8--------------------8---------8----------------||
|----6--------------------6---------6----------------||


|--15-13-12-15-13-12-------------------------------------------12-15-15-||
|--------------------15-13-12-15-13-12----------------12-13-15----------||
|--------------------------------------14-12-10-12-14-------------------||Guitar 1
|-----------------------------------------------------------------------||
|-----------------------------------------------------------------------||
|-----------------------------------------------------------------------||
                                                                        ||
|-----------------------------------------------------------------------||
|-----------------------------------------------------------------------||
|-----------------------------------------------------------------------||Guitar 2
|--5-----------5--------------5---------------5-------------5-----------||
|--5-----------5--------------5---------------5-------------5-----------||
|--3-----------3--------------3---------------3-------------3-----------||



|----------------------17-------------15-17-15----15-||
|----17-------17----15----15----15-17----------17----||
|-------16-------16----------16----------------------||Guitar1
|-14-------14----------------------------------------||
|----------------------------------------------------||
|----------------------------------------------------||
                                                     ||
|----------------------------------------------------||
|----------------------------------------------------||
|----------------------------------------------------||Guitar 2
|-2------------------------------------------------2-||
|-2------------------------------------------------2-||
|-0------------------------------------------------0-||

	* - Alternate Picking
	B - Bend
	H - Hammer On
	P - Pull Off
	\ - Slide Down
	/ - Slide Up
	. - Palm Mute


	About 95% of this tab is correct.  Feel free to comment.  Enjoy and have fun playing
	
FOR THE VIDEO LESSON CLICK ON THIS LINK http://www.youtube.com/watch?v=iaFY01h0Pn0&feature=related
FOR SECOND PART OF VIDEO CLICK ON THIS LINK 
http://www.youtube.com/watch?v=L1fxVVl_1bM&feature=related
comments
We did not receive enough feedback on this tab! Please rate:
print report bad tab
1 2 3 4 5
3 comments total.
0 reply
Chronophobia wrote on May 18 2010, 05:16 pm

This is from the instructional video they did, right? Why is the instructional vid different from the other tabs? :S

0 reply
Glentendo24 wrote on November 4 2010, 11:11 pm

this is just annoying to read....

0 reply
Asianator825 wrote on August 23 2011, 09:24 pm

its supposed to be in half step down not standard tuning.

I want to post or [tab]
guest
You may want to rate the tab now too:
select rating
Please do not post tabs as comments. Select "correction" instead!