Oops, an error
Loading. Please wait.

She Who Mars The Skin Of Gods Tab

ver1
ver1

Intro

Whole song

More versions @911Tabs.com
3,972 views 9 this week
2 commentsread comments
1 2 3 4 5
excellent!
x 1
Autoscroll
+/-
esc
set tempo
stop
Contributor
WARNING: You are trying to view
                                    content from Ultimate-Guitar.com
                                    in an unauthorized application,
                                    which is prohibited.

                                    Please use an official Ultimate
                                    Guitar Tabs application for iPhone,
                                    iPad or Android to access legitimate
                                    chords, guitar, bass, and drum tabs
                                    from Ultimate-Guitar.com database.

                                    Type "ultimate guitar tabs" in Apple
                                    App Store's or Android Market's
                                    search to find the application.
--------------------------------------

She Who Mars the Skin of Gods

--------------------------------------

Protest the Hero

--------------------------------------


Tabbed by: Tom DeLonge II

Converted to Text by: Dregen

For some strange reason, this song was not put into text, so I did it myself.

->I did not tab this song, I just converted it. Credits to original tabber.<-

--------------------------------------------------------------------------------------------

Guitar: Tuning - Half Step Down [D#, A#, F#, C#, G#, D#]

--------------------------------------------------------------------------------------------

       *Pick Slide
       |-------3------|  |--3--|  |--3--|  |--3--|  |--3-| |-3-| |-3-| |-3-|
       S           S  S  S  S  S  S  S  S  S  S  S  S  S S S S S S S S S S S S E  S
D#||--------------------------------------------------------------------------------|
A#||--------------------------------------------------------------------------------|
F#||--------------------------------------------------------------------------------|
C#||--23----------22-21-20-19-18-17-16-15-14-13-12-11-10-9-8-7-6-5-4-3-2-1-0-7------|
G#||--23----------22-21-20-19-18-17-16-15-14-13-12-11-10-9-8-7-6-5-4-3-2-1-0-7------|
D#||--23----------22-21-20-19-18-17-16-15-14-13-12-11-10-9-8-7-6-5-4-3-2-1-0-5------|


  PM    PM   PM   PM    PM   PM              PM    PM   PM   PM
  S   S S  S S  S S   S S  S S  S S S S S    S   S S  S S  S S  S S  S S  S  S  S  S S
------------------------------------------|--------------------------------------------|
------------------------------------------|--------------------------------------------|
------------------------------------------|------------------------------10-12-10------|
------------------------------------------|---------------------7-8-10-7----------11---|
-----10----8----7----10----8----5-7-8-7---|-----10----8----7---------------------------|
--5-----5----5----5-----5----5----------5-|--6-----6----6----6-----------------------6-|


  PM   PM      PM                PM    PM   PM   PM    PM   PM
                      |--3--|
  S  S S   S S S  S S S  S  S    S   S S  S S  S S   S S  S S  S S S E
------------------------------|-----------------------------------------|
------------------------------|-----------------------------------------|
------------------------------|-----------------------------------------|
------------------------------|-----------------------------------------|
--0----0--10---0--8---7h-8p-7-|-----10----8----7----10----8----5-7-8-7--|
------------------------------|--8-----8----8----8-----8----8-----------|


  PM    PM   PM   PM    PM   PM
  S   S S  S S  S S   S S  S S  S S S S S
------------------------------------------|
------------------------------------------|
------------------------------------------|
------------------------------------------|
-----10----8----7----10----8----5-7-8-7---|
--5-----5----5----5-----5----5----------5-|


  PM    PM   PM   PM PM PM PM PM PM PM PM PM PM PM PM PM PM PM PM PM PM
  S   S S  S S  S S  S  T  T  T  T  T  T  T  T  T  T  T  T  T  T  T  T     S E   S S E  S
------------------------------------------------------------------------|-----------------|
------------------------------------------------------------------------|-----------------|
------------------------------------------------------------------------|-----------------|
------------------------8--8--8--8--8--8--8--8--8--8--8--8--8--8--8--8--|---------------7-|
-----10----8----7-------8--8--8--8--8--8--8--8--8--8--8--8--8--8--8--8--|-------10-8------|
--6-----6----6----6--6--6--6--6--6--6--6--6--6--6--6--6--6--6--6--6--6--|--7--------------|


  PM    PM   PM   PM    PM   PM                        PM PM PM PM        PM PM PM PM
  S   S S  S S  S S   S S  S S  S S S E     S. S. S E  T  T  T  T  S E  S T  T  T  T
-----------------------------------------|--------------------------------------------|
-----------------------------------------|--------------------------------------------|
-----------------------------------------|--------------------------------------------|
-----------------------------------------|--2--2--2----2--2--2--2--2------2--2--2--2--|
-----10----8----7----10----8----5-7-8-7--|--2--2--2----2--2--2--2--2------2--2--2--2--|
--8-----8----8----8-----8----8-----------|--0--0--0----0--0--0--0--0------0--0--0--0--|


             PM PM PM                        PM PM PM PM
                      |-3-|
  S. S. S E  T  T  T  S S S S.    S. S. S E  T  T  T  T    E
-------------------------------|--------------------------------|
-------------------------------|--------------------------------|
-------------------------------|--------------------------------|
--2--2--2----2--2--2-----------|--2--2--2----2--2--2--2---------|
--2--2--2----2--2--2------1----|--2--2--2----2--2--2--2---------|
--0--0--0----0--0--0----3---2--|--0--0--0----0--0--0--0--AH3br--|


             PM PM PM PM          W                  PM PM PM PM        PM PM PM PM
  S. S. S E  T  T  T  T  S E  S   Q       S. S. S E  T  T  T  T  S E  S T  T  T  T  E
---------------------------------------|-----------------------------------------------|
---------------------------------------|-----------------------------------------------|
---------------------------------------|--------------------------------------------4--|
--2--2--2----2--2--2--2--2-------------|--2--2--2----2--2--2--2--2------2--2--2--2--5--|
--2--2--2----2--2--2--2--2-------------|--2--2--2----2--2--2--2--2------2--2--2--2--2--|
--0--0--0----0--0--0--0--0------AH3----|--0--0--0----0--0--0--0--0------0--0--0--0-----|


             PM PM PM PM                               PM PM PM PM        PM PM PM PM
  S. S. S E  T  T  T  T  S. S. S S. S. S    S. S. S E  T  T  T  T  S E  S T  T  T  T  E
-----------------------------------------|-----------------------------------------------|
-----------------------------------------|-----------------------------------------------|
--5--5--5--------------------------------|--------------------------------------------4--|
--5--5--5----7--7--7--7--7--7--7-4--5--6-|--2--2--2----2--2--2--2--2------2--2--2--2--5--|
--3--3--3----7--7--7--7--7--7--7-4--5--6-|--2--2--2----2--2--2--2--2------2--2--2--2--2--|
-------------5--5--5--5--5--5--5-2--3--4-|--0--0--0----0--0--0--0--0------0--0--0--0-----|


                                                                   PM PM  PMPM PM PM
  S S S S S S S S S E  S S S S S    S E  S S T T T T T T    S E  S T  T   S T  T  S
---------------------------------|-----------------------|---------------------------|
---------------------------------|-----------------------|---------------------------|
--9-9-9-9-9-9-9-9----------------|-----------------------|---------------------------|
--x-x-x-x-x-x-x-x-7------7---8---|--2----2---------------|--2----2-7--9--10-9--7-----|
--7-7-7-7-7-7-7-7-7------7---8---|--2----2---5-0-3-0-2-0-|--2----2----------------9--|
------------------5------5---6---|--0----0---------------|--0----0-------------------|


                                 PM PM  PMPM PM PM  PMPM PM
  S E  S S T T T T T T    S E  S T  T   S T  T  S   T T  S     S E  S S T T T T T T
-----------------------|------------------------------------|-----------------------|
-----------------------|------------------------------------|-----------------------|
-----------------------|------------------------------------|-----------------------|
--2----2---------------|--2----2-7--9--10-9--7--------7--9--|--2----2---------------|
--2----2---5-0-3-0-2-0-|--2----2----------------9--10-------|--2----2---5-0-3-0-2-0-|
--0----0---------------|--0----0----------------------------|--0----0---------------|


         PM PM  PMPM PM PM                                   PM PM  PMPM PM PM
  S E  S T  T   S T  T  S     S E  S S T T T T T T    S E  S T  T   S T  T  S
---------------------------|-----------------------|---------------------------|
---------------------------|-----------------------|---------------------------|
---------------------------|-----------------------|---------------------------|
--2----2-7--9--10-9--7-----|--2----2---------------|--2----2-7--9--10-9--7-----|
--2----2----------------9--|--2----2---5-0-3-0-2-0-|--2----2----------------9--|
--0----0-------------------|--0----0---------------|--0----0-------------------|


   PMPM PM    PMPM PM PM PM                 PM       PM PM PM
                                                                              |---3---|
   T T  S  S  T T  S  T  T   S S  Q.        S  E  E  S  S  S   S S  S S  S S  S   S   S
-----------------------------------------|----------------------------------------------|
-----------------------------------------|--------------------13---12---13---10h-12p-10-|
-----------------------------------------|----------------------------------------------|
-----7--9--------------------------------|--2--2--2-------------------------------------|
--10---------10-9--7--7--9--10-6~-L------|--2--2--2-------------------------------------|
-----------------------------------------|--0--0--0--0--0--0----------------------------|


  PM       PM PM PM
                     |---3---|  |---3--| |---3--|
  S  E  E  S  S  S   S   S   S  S   S  S S  S   S   E
---------------------------------------------------------|
--------------------13p-12p-10-12p-10p-8-7h-8h-10-AH7b~--|
---------------------------------------------------------|
--2--2--2------------------------------------------------|
--2--2--2------------------------------------------------|
--0--0--0--0--0--0---------------------------------------|


  PM       PM PM PM
                                    |---3---|
  S  E  E  S  S  S   S S  S S  S S  S   S   S
----------------------------------------------|
--------------------13---12---13---10h-12p-10-|
----------------------------------------------|
--2--2--2-------------------------------------|
--2--2--2-------------------------------------|
--0--0--0--0--0--0----------------------------|


   S  S  S   S  S  S   S  S  S   S  S  S   S  S
------------------------------------------------|
-----20--------17--------19--------15--------17-|
--17----17s-14----14s-16----16s-12----12s-14----|
------------------------------------------------|
------------------------------------------------|
------------------------------------------------|


  PM       PM PM PM
                                    |---3---|
  S  E  E  S  S  S   S S  S S  S S  S   S   S
----------------------------------------------|
--------------------13---12---13---10h-12p-10-|
----------------------------------------------|
--2--2--2-------------------------------------|
--2--2--2-------------------------------------|
--0--0--0--0--0--0----------------------------|


  PM       PM PM PM
                     |---3---|  |---3--| |---3--|
  S  E  E  S  S  S   S   S   S  S   S  S S  S   S   E
--------------------------------------------------------|
--------------------13p-12p-10-12p-10p-8-7h-8h-10-AH8~--|
--------------------------------------------------------|
--2--2--2-----------------------------------------------|
--2--2--2-----------------------------------------------|
--0--0--0--0--0--0--------------------------------------|


  PM       PM PM PM
                                    |---3---|
  S  E  E  S  S  S   S S  S S  S S  S   S   S     S  S  S   S  S  S   S  S  S   S  S  S
----------------------------------------------|------------------------------------------|
--------------------13---12---13---10h-12p-10-|-----20--------17--------19--------15-----|
----------------------------------------------|--17----17s-14----14s-16----16s-12----12s-|
--2--2--2-------------------------------------|------------------------------------------|
--2--2--2-------------------------------------|------------------------------------------|
--0--0--0--0--0--0----------------------------|------------------------------------------|


   S  S  S   S  S  S   S  S  S   S  S S      S  S  S   S  S  S   S  S  S   S  S  S
-----------------------------------------|------------------------------------------|
-----17--------13--------15--------------|-----20--------17--------19--------15-----|
--14----14s-11----11s-12----12s-11-12-L/-|--17----17s-14----14s-16----16s-12----12s-|
-----------------------------------------|------------------------------------------|
-----------------------------------------|------------------------------------------|
-----------------------------------------|------------------------------------------|


   S  S  S   S  S  S   S  S  S   S  S S      S  S  S   S  S  S   S  S  S   S  S  S
-----------------------------------------|------------------------------------------|
-----17--------13--------15--------------|-----20--------17--------19--------15-----|
--14----14s-11----11s-12----12s-11-12-L/-|--17----17s-14----14s-16----16s-12----12s-|
-----------------------------------------|------------------------------------------|
-----------------------------------------|------------------------------------------|
-----------------------------------------|------------------------------------------|


   S  S  S   S  S  S   S  S  S   S  S S      S  S  S   S  S  S   S  S  S   S  S  S
-----------------------------------------|------------------------------------------|
-----17--------13--------15--------------|-----20--------17--------19--------15-----|
--14----14s-11----11s-12----12s-11-12-L/-|--17----17s-14----14s-16----16s-12----12s-|
-----------------------------------------|------------------------------------------|
-----------------------------------------|------------------------------------------|
-----------------------------------------|------------------------------------------|


   S  S  S   S  S  S   S  S  S   S  S S      S  S  S   S  S  S   S  S  S   S  S  S
-----------------------------------------|------------------------------------------|
-----17--------13--------15--------------|-----20--------17--------19--------15-----|
--14----14s-11----11s-12----12s-11-12-L/-|--17----17s-14----14s-16----16s-12----12s-|
-----------------------------------------|------------------------------------------|
-----------------------------------------|------------------------------------------|
-----------------------------------------|------------------------------------------|


                                            |--3--| |--3--| |--3--|
   S  S  S   S  S  S   S  S  S   S  S S     S  S  S S  S  S S  S  S
-----------------------------------------|--------------------------|
-----17--------13--------15--------------|--5p-3p-0-----------------|
--14----14s-11----11s-12----12s-11-12-L/-|----------4p-2p-0---------|
-----------------------------------------|------------------5p-4p-0-|
-----------------------------------------|--------------------------|
-----------------------------------------|--------------------------|


  E  E  E  Q    S  S S  S  S  S     E  E  E  Q    S  S S   S  S  S
--------------------------------|----------------------------------|
--------------------------------|----------------------------------|
--------------------------------|----------------------------------|
---------------------5h-7s-9p-7-|---9--7----------7h-9-------------|
--------5-------5h-7------------|--10--9-----6---------9h-10p-9----|
--5--3-----0--------------------|------------7------------------10-|


                                                       |--3--|
  E  E  E  Q    S  S S  S  S  S     E  E  E  Q    S  S S  S  S S S    E   S E  S E
--------------------------------|----------------------------------|----------------|
--------------------------------|----------------------------------|----------------|
--------------------------------|----------------------------------|----------------|
---------------------5h-7s-9p-7-|---9--7---------------5h-7p-5-----|----------------|
--------5-------5h-7------------|--10--9-----6----5h-7---------7---|------9------7--|
--5--3-----0--------------------|------------7---------------------|-----10------8--|


                                          PM     PM     PM
  E  E  E  Q    S  S S  S  S  S     E  E  S  S S S  S S S  E.
--------------------------------|-------------------------------|
--------------------------------|-------------------------------|
--------------------------------|-------------------------------|
---------------------5h-7s-9p-7-|---9--7------------------------|
--------5-------5h-7------------|--10--9-----6------6-----------|
--5--3-----0--------------------|---------7--7---7--7---7--7/---|


           PM PM PM PM   PM PM PM   PM             PM PM PM PM PM PM PM
                                                   |--3--|  |--3--|
  E  E  E  S  S  S  S  S S  S  S  S S     E  E  E  E  E  E  E  E  E  S  S
---------------------------------------|----------------------------------|
---------------------------------------|----------------------------------|
---------------------------------------|----------------------------------|
-----------2--2--2--2----2--2--2----2--|-----------2--2--2--2--2--2--2----|
--------5--2--2--2--2----2--2--2----2--|--------5--2--2--2--2--2--2--2----|
--5--3-----0--0--0--0----0--0--0----0--|--5--3-----0--0--0--0--0--0--0----|


           PM PM PM PM   PM PM PM   PM             PM PM PM PM
  E  E  E  S  S  S  S  S S  S  S  S S     E  E  E  E  E  E  E
---------------------------------------|-----------------------|
---------------------------------------|-----------------------|
---------------------------------------|-----------------------|
-----------2--2--2--2----2--2--2----2--|-----------2--2--2--2--|
--------5--2--2--2--2----2--2--2----2--|--------5--2--2--2--2--|
--5--3-----0--0--0--0----0--0--0----0--|--5--3-----0--0--0--0--|


           PM PM PM PM   PM PM PM   PM             PM PM PM PM PM PM PM
  E  E  E  S  S  S  S  S S  S  S  S S     E  E  E  E  S  S  E  S  S  E
---------------------------------------|--------------------------------|
---------------------------------------|--------------------------------|
---------------------------------------|--------------------------------|
-----------2--2--2--2----2--2--2----2--|-----------2--2--2--2--2--2--2--|
--------5--2--2--2--2----2--2--2----2--|--------5--2--2--2--2--2--2--2--|
--5--3-----0--0--0--0----0--0--0----0--|--5--3-----0--0--0--0--0--0--0--|


           PM PM PM PM   PM PM PM   PM             PM PM PM PM            PM PM PM PM
  E  E  E  S  S  S  S  S S  S  S  S S     E  E  E  E  E  E  E     Q    E  E  E  E  E  E
---------------------------------------|-----------------------|-------------------------|
---------------------------------------|-----------------------|-------------------------|
---------------------------------------|-----------------------|-------------------------|
-----------2--2--2--2----2--2--2----2--|-----------2--2--2--2--|----------2--2--2--2-----|
--------5--2--2--2--2----2--2--2----2--|--------5--2--2--2--2--|----------2--2--2--2-----|
--5--3-----0--0--0--0----0--0--0----0--|--5--3-----0--0--0--0--|----------0--0--0--0-----|


     PM PM PM PM    PM PM    PM PM         PM PM PM            PM PM PM PM
  E  E  E  E  E  E  E  E     E  E  Q    E  E  E  E     Q    E  E  E  E  E  E
--------------------------|-------------------------|-------------------------|
--------------------------|-------------------------|-------------------------|
--------------------------|-------------------------|-------------------------|
-----2--2--2--2-----2--2--|--2--2----------2--2--2--|----------2--2--2--2-----|
-----2--2--2--2-----2--2--|--2--2----------2--2--2--|----------2--2--2--2-----|
-----0--0--0--0-----0--0--|--0--0----------0--0--0--|----------0--0--0--0-----|


   S S  S S  S   S S  S S  S S  S   S S  S S S S
--14-0-12-0--------0-14-0-12-0--------0----0---0-|
------------12h-13-------------12h-13---10---8---|
-------------------------------------------------|
-------------------------------------------------|
-------------------------------------------------|
-------------------------------------------------|


   S S  S S  S   S S  S S  S S  S   S S  S S S S
--14-0-12-0--------0-14-0-12-0--------0----0---0-|
------------12h-13-------------12h-13---10---8---|
-------------------------------------------------|
-------------------------------------------------|
-------------------------------------------------|
-------------------------------------------------|


   S S  S S  S   S S  S S  S S  S   S S  S S S S
--14-0-12-0--------0-14-0-12-0--------0----0---0-|
------------12h-13-------------12h-13---10---8---|
-------------------------------------------------|
-------------------------------------------------|
-------------------------------------------------|
-------------------------------------------------|


                                             |---3--|
   S S  S S  S   S S  S S  S S  S   S S  S S S   S  S
--14-0-12-0--------0-14-0-12-0--------0----0----------|
------------12h-13-------------12h-13---10---8h-10p-8-|
------------------------------------------------------|
------------------------------------------------------|
------------------------------------------------------|
------------------------------------------------------|


   S S  S S  S   S S  S S  S S  S   S S     S S  S S  S   S S  S S  S S  S   S S
--14-0-12-0--------0-14-0-12-0--------0-|--14-0-12-0--------0-14-0-12-0--------0-|
------------12h-13-------------12h-13---|------------12h-13-------------12h-13---|
----------------------------------------|----------------------------------------|
----------------------------------------|----------------------------------------|
----------------------------------------|----------------------------------------|
----------------------------------------|----------------------------------------|


   S S  S S  S   S S  S S  S S  S   S  S   S  S
--14-0-12-0--------0-14-0-12-0------------------|
------------12h-13-------------12h-13--------13-|
--------------------------------------14p-12----|
------------------------------------------------|
------------------------------------------------|
------------------------------------------------|


   S S  S S  S   S S  S S  S S  S   S  S   S  S     S S  S S  S   S S  S S  S S  S   S S
--14-0-12-0--------0-14-0-12-0------------------|--14-0-12-0--------0-14-0-12-0--------0-|
------------12h-13-------------12h-13--------13-|------------12h-13-------------12h-13---|
--------------------------------------14p-12----|----------------------------------------|
------------------------------------------------|----------------------------------------|
------------------------------------------------|----------------------------------------|
------------------------------------------------|----------------------------------------|


   S S  S S  S   S S  S S  S S  S   S S     S S  S S  S   S S  S S  S S  S   S  S   S  S
--14-0-12-0--------0-14-0-12-0--------0-|--14-0-12-0--------0-14-0-12-0------------------|
------------12h-13-------------12h-13---|------------12h-13-------------12h-13--------13-|
----------------------------------------|--------------------------------------14p-12----|
----------------------------------------|------------------------------------------------|
----------------------------------------|------------------------------------------------|
----------------------------------------|------------------------------------------------|


                                                              PM PM PM PM
   S S  S S  S   S S  S S  S S  S   S  S   S  S    E  E  S E  T  T  T  T  E.
--14-0-12-0--------0-14-0-12-0------------------|-----------------------------|
------------12h-13-------------12h-13--------13-|-----------------------------|
--------------------------------------14p-12----|--------7-7------------------|
------------------------------------------------|--2--2--7-7--8--8--8--8--8---|
------------------------------------------------|--2--2--5-5--8--8--8--8--8---|
------------------------------------------------|--0--0-------6--6--6--6--6---|


    PM   PM PM   PM PM   PM PM      PM PM   PM PM   PM PM   PM PM
  S S  S S  S  S S  S  S S  S  S    S  S  S S  S  S S  S  S S  S  S
---------------------------------|----------------------------------|
---------------------------------|----------------------------------|
---------------------------------|----------------------------------|
--0-0--3-0--0--5-0--0--2-0--0--3-|--0--0--5-0--0--2-0--0--3-0--0--5-|
---------------------------------|----------------------------------|
---------------------------------|----------------------------------|


  PM PM   PM PM   PM PM   PM PM      PM PM   PM PM   PM PM   PM PM
  S  S  S S  S  S S  S  S S  S  S    S  S  S S  S  S S  S  S S  S  S
----------------------------------|----------------------------------|
----------------------------------|----------------------------------|
----------------------------------|----------------------------------|
--0--0--2-0--0--3-0--0--5-0--0--2-|--0--0--3-0--0--5-0--0--2-0--0--3-|
----------------------------------|----------------------------------|
----------------------------------|----------------------------------|


  PM PM   PM PM   PM PM   PM PM      PM PM   PM PM   PM PM   PM
  S  S  S S  S  S S  S  S S  S  S    S  S  S S  S  S S  S  S S  S S
----------------------------------|---------------------------------|
----------------------------------|---------------------------------|
----------------------------------|---------------------------------|
--0--0--5-0--0--2-0--0--3-0--0--5-|--0--0--2-0--0--3-0--0--5-0----2-|
----------------------------------|-----------------------------3---|
----------------------------------|---------------------------------|


           PM PM   PM PM      PM PM   PM PM   PM PM   PM PM
  S Q    S S  S  S S  S  S    S  S  S S  S  S S  S  S S  S  S
---------------------------|-----------------------------------|
---------------------------|-----------------------------------|
---------------------------|-----------------------------------|
--3--------0--0--3-0--0--5-|--0--0--2-0--0--3-0--0--5-0--0--2h-|
---------------------------|-----------------------------------|
---------------------------|-----------------------------------|


          PM PM   PM PM   PM PM      PM PM   PM PM   PM PM      PM PM
  S  S  S S  S  S S  S  S S  S  S    S  S  S S  S  S S  S  S  S S  S
----------------------------------|-----------------------------------|
----------------------------------|-----------------------------------|
----------------------------------|-----------------------------------|
--3h-5p-3-0--0--3-0--0--5-0--0--2-|--0--0--3-0--0--5-0--0--2h-3-0--0--|
----------------------------------|-----------------------------------|
----------------------------------|-----------------------------------|


    PM PM   PM PM   PM PM   PM PM      PM PM            PM PM   PM PM
  S S  S  S S  S  S S  S  S S  S     S S  S  S  S  S  S S  S  S S  S
----------------------------------|-----------------------------------|
----------------------------------|-----------------------------------|
----------------------------------|-----------------------------------|
--3-0--0--5-0--0--2-0--0--3-0--0--|--5-0--0--2h-3h-5p-3-0--0--3-0--0--|
----------------------------------|-----------------------------------|
----------------------------------|-----------------------------------|


    PM PM   PM PM   PM PM   PM
  S S  S  S S  S  S S  S  S S     E.  E.  E
-------------------------------|-------------|
-------------------------------|-------------|
-------------------------------|-------------|
--5-0--0--2-0--0--3-0--0--5-0--|------2---3--|
-------------------------------|--3----------|
-------------------------------|-------------|


  S   S  S  S   S   S  S   S   S  S   S  S   S  S  S   S     H          S  S  Q.
-----------------------------------------------12--------|----------------------------|
----------------------------------------13h-15----15s-13-|--15~--------12-------------|
---------------------------------12h-14------------------|----------------12----------|
----------------------12h-14p-12-------------------------|-------------------12~------|
-----------10h-12p-10------------------------------------|----------------------------|
--8h-10p-8-----------------------------------------------|----------------------------|


   S  S S  S S  S S  S  S  S S  S S  S S  S     S  S S  S S  S S  S  S  S S  S S  S S  S
--------------------------------------------|--------------------------------------------|
--------------------------------------------|--------------------------------------------|
--------------------------------------------|--------------------------------------------|
--------------------------------------------|--------------------------------------------|
--12p-8-7p-0-5p-0-7h-8-12p-8-7p-0-7p-5-3h-5-|--12p-8-7p-0-5p-0-7h-8-12p-8-7p-0-7p-5-3h-5-|
--------------------------------------------|--------------------------------------------|


  S   S  S  S   S   S  S   S   S  S   S  S   S  S  S   S     Q.       E   E.     S  E   E
-----------------------------------------------12--------|---------------------------------|
----------------------------------------13h-15----15s-13-|--15~------17--17br---15---------|
---------------------------------12h-14------------------|-------------------------17--16--|
----------------------12h-14p-12-------------------------|---------------------------------|
-----------10h-12p-10------------------------------------|---------------------------------|
--8h-10p-8-----------------------------------------------|---------------------------------|


   S  S S  S S  S S  S  S  S S  S S  S S  S     S  S S  S S  S S  S  S  S S  S S  S S  S
--------------------------------------------|--------------------------------------------|
--------------------------------------------|--------------------------------------------|
--------------------------------------------|--------------------------------------------|
--------------------------------------------|--------------------------------------------|
--12p-8-7p-0-5p-0-7h-8-12p-8-7p-0-7p-5-3h-5-|--12p-8-7p-0-5p-0-7h-8-12p-8-7p-0-7p-5-3h-5-|
--------------------------------------------|--------------------------------------------|


  S   S  S  S   S   S  S   S   S  S   S  S   S  S  S   S
-----------------------------------------------12--------|
----------------------------------------13h-15----15s-13-|
---------------------------------12h-14------------------|
----------------------12h-14p-12-------------------------|
-----------10h-12p-10------------------------------------|
--8h-10p-8-----------------------------------------------|


   |---3---|                    |---3---|
   S   S   S  S  S  S  S  S  S  S   S   S  S  S  S  S  E
--12h-13p-12-------15-------12-12h-13p-12-------15-13-12--|
-------------13----------13---------------13--------------|
----------------12----12---------------------12-----------|
----------------------------------------------------------|
----------------------------------------------------------|
----------------------------------------------------------|


  S   S  S  S   S   S  S   S   S  S   S  S   S  S  S   S
-----------------------------------------------12--------|
----------------------------------------13h-15----15s-13-|
---------------------------------12h-14------------------|
----------------------12h-14p-12-------------------------|
-----------10h-12p-10------------------------------------|
--8h-10p-8-----------------------------------------------|


   |---3---|                    |---3---|
   S   S   S  S  S  S  S  S  S  S   S   S  S  S  S  S  S  S
--12h-13p-12-------15-------12-12h-13p-12-------17-15-16-16-|
-------------13----------13---------------13----------------|
----------------12----12---------------------12-------------|
------------------------------------------------------------|
------------------------------------------------------------|
------------------------------------------------------------|


  S   S  S  S S   S  S  S S   S  S  S S   S  S  S    S  S  S S S  S  S S S  S  S S S  S  SS
--8h-12p-8----8h-12p-8----8h-12p-8----8h-12p-8----|--5h-8p-5---5h-8p-5---5h-8p-5---5h-8p-5---|
-----------10----------10----------10----------10-|----------6---------6---------6---------6-|
--------------------------------------------------|------------------------------------------|
--------------------------------------------------|------------------------------------------|
--------------------------------------------------|------------------------------------------|
--------------------------------------------------|------------------------------------------|


   S   S   S  S  S   S   S  S  S   S   S  S  S   S   S  S
--12h-15p-12----12h-15p-12----12h-15p-12----12h-15p-12----|
-------------13------------13------------13------------13-|
----------------------------------------------------------|
----------------------------------------------------------|
----------------------------------------------------------|
----------------------------------------------------------|


   S   S   S  S  S   S   S  S  S   S   S  S  S  S  S  S
--10h-13p-10----10h-13p-10----10h-13p-10----------------|
-------------12------------12------------12-------------|
--------------------------------------------10p-7-------|
--------------------------------------------------10p-7-|
--------------------------------------------------------|
--------------------------------------------------------|


  S   S  S  S S   S  S  S S   S  S  S S   S  S  S    S  S  S S S  S  S S S  S  S S S  S  SS
--8h-12p-8----8h-12p-8----8h-12p-8----8h-12p-8----|--5h-8p-5---5h-8p-5---5h-8p-5---5h-8p-5---|
-----------10----------10----------10----------10-|----------6---------6---------6---------6-|
--------------------------------------------------|------------------------------------------|
--------------------------------------------------|------------------------------------------|
--------------------------------------------------|------------------------------------------|
--------------------------------------------------|------------------------------------------|


   S   S   S  S  S   S   S  S  S   S   S  S  S   S   S  S
--12h-15p-12----12h-15p-12----12h-15p-12----12h-15p-12----|
-------------13------------13------------13------------13-|
----------------------------------------------------------|
----------------------------------------------------------|
----------------------------------------------------------|
----------------------------------------------------------|


   S   S   S  S  S   S   S  S  S   S   S  S  S  S  S  S
--10h-13p-10----10h-13p-10----10h-13p-10----------------|
-------------12------------12------------12-------------|
--------------------------------------------10p-7-------|
--------------------------------------------------10p-7-|
--------------------------------------------------------|
--------------------------------------------------------|


  PM    PM   PM   PM    PM   PM         PM    PM    PM   PM   PM                      PM
  S   S S  S S  S S   S S  S S  S S S S S     S   S S  S S  S S  S S  S S  S  S  S  S S
-------------------------------------------|---------------------------------------------|
-------------------------------------------|---------------------------------------------|
-------------------------------------------|------------------------------10-12-10-------|
-------------------------------------------|---------------------7-8-10-7----------11----|
-----10----8----7----10----8----5-7-8-7----|-----10----8----7----------------------------|
--5-----5----5----5-----5----5----------5--|--8-----8----8----8-----------------------8--|


  PM    PM   PM   PM    PM   PM         PM
  S   S S  S S  S S   S S  S S  S S S S S
-------------------------------------------|
-------------------------------------------|
-------------------------------------------|
-------------------------------------------|
-----10----8----7----10----8----5-7-8-7----|
--8-----8----8----8-----8----8----------8--|


  PM PM PM PM PM PM PM PM  PM PMPM PM PM PM PM PM  PM PM PM PMPM PM  PM PMPM PM PM PM PM PMPM
  T  T  T  T  T  T  T  T   T  T T  T  T  T  T  T   T  T  T  T T  T   T  T T  T  T  T  T  T T
-----------------------------------------------------------------------------------------------|
-----------------------------------------------------------------------------------------------|
-----------------------------------------------------------------------------------------------|
-----------------------------------------------------------------------------------------------|
--8--8--7--7--5--5--7--7--10-10-8--8--7--7--8--8--12-12-10-10-8--8--10-10-7--7--5--5--3--3--5--|
-----------------------------------------------------------------------------------------------|


  PM    PM   PM   PM    PM   PM         PM    PM    PM   PM   PM                      PM
  S   S S  S S  S S   S S  S S  S S S S S     S   S S  S S  S S  S S  S S  S  S  S  S S
-------------------------------------------|---------------------------------------------|
-------------------------------------------|---------------------------------------------|
-------------------------------------------|------------------------------10-12-10-------|
-------------------------------------------|---------------------7-8-10-7----------11----|
-----10----8----7----10----8----5-7-8-7----|-----10----8----7----------------------------|
--5-----5----5----5-----5----5----------8--|--8-----8----8----8-----------------------8--|


  PM    PM   PM   PM    PM   PM
  S   S S  S S  S S   S S  S S  S S S S
----------------------------------------|
----------------------------------------|
----------------------------------------|
----------------------------------------|
-----10----8----7----10----8----5-7-8-7-|
--8-----8----8----8-----8----8----------|


  PM PM PM PM PM PM PM PM  PM PMPM PM PM PM PM PM
  T  T  T  T  T  T  T  T   T  T T  T  T  T  T  T  S S S S S S S S S E  S
-------------------------------------------------------------------------|
-------------------------------------------------------------------------|
--------------------------------------------------5-4-2------------------|
--------------------------------------------------------5-3-2-----7------|
--8--8--7--7--5--5--7--7--10-10-8--8--7--7--8--8------------------7------|
--------------------------------------------------------------1-0-5------|


  PM    PM   PM   PM    PM   PM              PM    PM   PM   PM
  S   S S  S S  S S   S S  S S  S S S S S    S   S S  S S  S S  S S  S S  S  S  S  S S
------------------------------------------|--------------------------------------------|
------------------------------------------|--------------------------------------------|
------------------------------------------|------------------------------10-12-10------|
------------------------------------------|---------------------7-8-10-7----------11---|
-----10----8----7----10----8----5-7-8-7---|-----10----8----7---------------------------|
--5-----5----5----5-----5----5----------5-|--6-----6----6----6-----------------------6-|


  PM   PM      PM                PM    PM   PM   PM    PM   PM
                      |--3--|
  S  S S   S S S  S S S  S  S    S   S S  S S  S S   S S  S S  S S S E
------------------------------|-----------------------------------------|
------------------------------|-----------------------------------------|
------------------------------|-----------------------------------------|
------------------------------|-----------------------------------------|
--0----0--10---0--8---7h-8p-7-|-----10----8----7----10----8----5-7-8-7--|
------------------------------|--8-----8----8----8-----8----8-----------|


  PM    PM   PM   PM    PM   PM
  S   S S  S S  S S   S S  S S  S S S S S
------------------------------------------|
------------------------------------------|
------------------------------------------|
------------------------------------------|
-----10----8----7----10----8----5-7-8-7---|
--5-----5----5----5-----5----5----------5-|


  PM    PM   PM   PM PM PM PM PM PM PM PM PM PM PM PM PM PM PM PM PM PM
  S   S S  S S  S S  S  T  T  T  T  T  T  T  T  T  T  T  T  T  T  T  T
------------------------------------------------------------------------|
------------------------------------------------------------------------|
------------------------------------------------------------------------|
------------------------8--8--8--8--8--8--8--8--8--8--8--8--8--8--8--8--|
-----10----8----7-------8--8--8--8--8--8--8--8--8--8--8--8--8--8--8--8--|
--6-----6----6----6--6--6--6--6--6--6--6--6--6--6--6--6--6--6--6--6--6--|


  S E   S S E  S   Q    Q
-----------------------------||
-----------------------------||
-----------------------------||
---------------7br-L---------||
-------10-8------------------||
--7--------------------------||


Duration Legend
---------------
W - whole
H - half
Q - quarter
E - 8th
S - 16th
T - 32nd
X - 64th
. - note dotted
|-n-|  - n-tuplets


Tablature Legend
----------------
L - tied note
x - dead note
g - grace note
(n) - ghost note
> - accentuded note
NH - natural harmonic
AH - artificial harmonic
TH - tapped harmonic
SH - semi harmonic
PH - pitch harmonic
h - hammer on
p - pull off
b - bend
br - bendRelease
pb - preBend
pbr - preBendRelease
brb - bendReleaseBend
\n/ - tremolo bar dip
\n - tremolo bar dive
-/n - tremolo bar Release up
/n\ - tremolo bar inverted dip
/n - tremolo bar return
-\n - tremolo bar Release down
S - shift slide
s - legato slide
/ -  slide into from below or out of upwards
\ -  slide into from above or out of downwards
~ - vibrato
W - wide vibrato
tr - trill
TP - tremolo picking
T - tapping
S - slap
P - pop
< - fade in
^ - brush up
v - brush down
comments
We did not receive enough feedback on this tab! Please rate:
1 2 3 4 5
2 comments total.
0 reply
Timmy Shredlock wrote on August 8 2009, 01:25 am

theres a few notes that dont sound right

0 reply
Jayt526 wrote on August 13 2009, 04:31 pm

could you tab the bass tabs as well?

I want to post or [tab]
guest
You may want to rate the tab now too:
select rating
Please do not post tabs as comments. Select "correction" instead!