Oops, an error
Loading. Please wait.

Spoils Bass Tab

ver1
ver1

Whole song

Interactive

More versions @911Tabs.com
3,010 views 1 this week
no commentswrite comment
1 2 3 4 5
excellent!
x 1
Autoscroll
+/-
esc
set tempo
stop
Hey! There's an official Ultimate Guitar app which is ideal
for learning songs when you're away from computer. Get the app
WARNING: You are trying to view
                                    content from Ultimate-Guitar.com
                                    in an unauthorized application,
                                    which is prohibited.

                                    Please use an official Ultimate
                                    Guitar Tabs application for iPhone,
                                    iPad or Android to access legitimate
                                    chords, guitar, bass, and drum tabs
                                    from Ultimate-Guitar.com database.

                                    Type "ultimate guitar tabs" in Apple
                                    App Store's or Android Market's
                                    search to find the application.
Arif Mirabdolbaghi

For everyone without Guitar Pro. Tabbed by Tom DeLonge II.

      E  S S S S E  S S S S    E  S S S S E  S S S S    E  S S S S E  S S S S  
F#||------------------------|------------------------|------------------------|
C#||------------------------|------------------------|------------------------|
G#||------------------------|------------------------|------------------------|
D#||--5--5-5-5-5-5--5-5-5-5-|--5--5-5-5-5-3--3-3-3-3-|--5--5-5-5-5-5--5-5-5-5-|
A#||------------------------|------------------------|------------------------|


  E  S S S S E  S S S S    S S S S S S S S S S S S S S S S  
------------------------|----------------------------------|
------------------------|----------------------------------|
------------------------|----------------------------------|
--5--5-5-5-5-3--3-3-3-3-|--5-5-5-5-5-5-5-5-5-5-5-5-5-5-5-5-|
------------------------|----------------------------------|


  S S S S S S S S S S S S S S S S    S S S S S S S S S S S S S S S S  
----------------------------------|----------------------------------|
----------------------------------|----------------------------------|
------------------------------3-3-|----------------------------------|
--5-5-5-5-5-5-5-5-1-1-1-1-1-1-----|--5-5-5-5-5-5-5-5-5-5-5-5-5-5-5-5-|
----------------------------------|----------------------------------|


  S S S S S S S S S S S S S S S S    S E  S S H        S E   
----------------------------------|-------------------------|
----------------------------------|-------------------------|
----------------------------------|-------3-5---------------|
--5-5-5-5-5-5-5-5-1-1-1-1-1-1-1-1-|--5-------------------3--|
----------------------------------|-------------------------|


  S Q    E  S S S S S S S  E     E.  S E.  S E  E  E  E   
--------------------------16--|--------------------------|
--------------------------15--|--------------------------|
--------------7---6---5-------|------3-5---3----3--5-----|
--5---------------------------|--5-----------5--------3--|
------------------------------|--------------------------|


  E.  S E.  S E  E  E  E     S S S  S S S  S S S  S S S  S S S  S  
--------------------------|---------------------------------------|
--------------------------|--------10-----10-----10-----10-----10-|
------3-5---6-7--6--5--3--|---------------------------------------|
--5-----------------------|--8-8-8----8-8----8-8----8-8----8-8----|
--------------------------|---------------------------------------|


  E.  S E.  S E  E  E  E     E.  S E.  S E  E  E  E   
--------------------------|--------------------------|
--------------------------|--------------------------|
------3-5---3----3--5-----|------3-5---6-7--6--5--3--|
--5-----------5--------3--|--5-----------------------|
--------------------------|--------------------------|


  S S S  S S S  S S S  S S S  S S S  S S  S  
--------------------------------------------|
--------10-----10-----10-----10-----10---10-|
--------------------------------------------|
--8-8-8----8-8----8-8----8-8----8-8----8----|
--------------------------------------------|


                                                     |-3-| |-3-| |-3-| |-3-|  
  S S S  S S S  S S S  S S S  S S S  S    E.  E.  E  S S S S S S S S S S S S  
---------------------------------------|-------------------------------------|
--------10-----10-----10-----10-----10-|-------------------------------------|
---------------------------------------|--7----------------------------7-7-7-|
--8-8-8----8-8----8-8----8-8----8-8----|-------------3-3-3-7-7-7-6-6-6-------|
---------------------------------------|------5---5--------------------------|


  E.  E.  E  S Q    E  S    E.  E.  E  S S S S S S S S  
-------------------------|-----------------------------|
-------------------------|-----------------------------|
--7----------------------|--7--------------------------|
-------------------------|---------------7-8---8-7---7-|
------5---5--5-----------|------5---5--5---------------|


                     T         T         T         T  
             |---3---| |---3---| |---3---| |---3---|  
  E.  E.  E  S   S   S S   S   S S   S   S S   S   S  
-------------------------------------------9h-11h-12-|
---------------------------------9h-10h-12-----------|
--7--------------------9h-10h-12---------------------|
-------------8h-10h-12-------------------------------|
------5---5------------------------------------------|


  E.  E.  E  S S S S S S S S    E.  E.  E  E  E  E  E   
-----------------------------|-------------------------|
-----------------------------|-------------------------|
--7--------------------------|--7----------------------|
---------------7-8---8-7---7-|-------------3--4--5--6--|
------5---5--5---------------|------5---5--------------|


  E.  E.  E  S S S S S S S S  
-----------------------------|
-----------------------------|
--7--------------------------|
---------------7-8---8-7---7-|
------5---5--5---------------|


                     T         T         T         T  
             |---3---| |---3---| |---3---| |---3---|  
  E.  E.  E  S   S   S S   S   S S   S   S S   S   S  
-------------------------------------------9h-11h-12-|
---------------------------------9h-10h-12-----------|
--7--------------------9h-10h-12---------------------|
-------------8h-10h-12-------------------------------|
------5---5------------------------------------------|


  E.  E.  E  S S S S S S S S    E.  E.  E  E   E   E   S  S  
-----------------------------|-------------9--10--11--12-12-|
-----------------------------|------------------------------|
--7--------------------------|--7---------------------------|
---------------7-8---8-7---7-|------------------------------|
------5---5--5---------------|------5---5-------------------|


  *Hard to hear.                                                                
                        T              T              T              T          
  |---------3--------|  |--3--| |-3-|  |-3-| |--3--|  |--3--| |-3-|  |-3-|      
  S               S  S  S  S  S S S S  S S S S  S  S  S  S  S S S S  S S S  E   
-------------------------------------------------------------------------------1
-----------------------12-------------10-------------12-------------10---------1
--------------------11----11--------9----9--------11----11--------9----9--------
-----------------10----------10---8--------8---10----------10---8--------8------
--9-----------------------------7------------9----------------7------------10---


  E.  S E.  S E  E  E  E     E.  S E.  S E  E  E  E   
--------------------------|--------------------------|
--------------------------|--------------------------|
------3-5---3----3--5-----|------3-5---6-7--6--5--3--|
--5-----------5--------3--|--5-----------------------|
--------------------------|--------------------------|


  E.  S E.  S E  E  E  E     E.  S E.  S E  E  E  E   
--------------------------|--------------------------|
--------------------------|--------------------------|
------3-5---3----3--5-----|------3-5---6-7--6--5--3--|
--5-----------5--------3--|--5-----------------------|
--------------------------|--------------------------|


  S S S  S S S  S S S  S S S Q       S S S  S S S  S S S  S S S Q     
----------------------------------|----------------------------------|
--------10-----10-----10----------|--------10-----10-----10----------|
----------------------------------|----------------------------------|
--8-8-8----8-8----8-8----8-8------|--8-8-8----8-8----8-8----8-8------|
----------------------------------|----------------------------------|


  S S S  S S S  S S S  S S S Q       S S S  S S S  S S S  S S S Q     
----------------------------------|----------------------------------|
--------10-----10-----10----------|--------10-----10-----10----------|
----------------------------------|----------------------------------|
--8-8-8----8-8----8-8----8-8------|--8-8-8----8-8----8-8----8-8------|
----------------------------------|----------------------------------|


  Q    E  Q    E  E  E     S S S S S S S Q    S S S S S  
------------------------|-------------------------------|
------------------------|-------------------------------|
------------------------|-------------------------------|
-------5-------3--2--1--|--0---0---0---0--------0---0---|
------------------------|-------------------------------|


  E  S S S Q    S S S S E  S S S    S S S S S S S Q    S S S S S  
---------------------------------|-------------------------------|
---------------------------------|-------------------------------|
---------------------------------|-------------------------------|
-----0---0--------1-1-0----3-4-5-|--0---0---0---0--------0---0---|
---------------------------------|-------------------------------|


  E  S S S Q    S    S S S H        Q    S    S S S H        Q    S  
------------------|------------------------|------------------------|
------------------|------------------------|------------------------|
------------------|------------------------|------------------------|
-----0---0--------|--1-1-0-----------------|--1-1-0-----------------|
------------------|------------------------|------------------------|


  E  S E  S E  S E  S    E  S E  S E  S E  S    E  S E  S E  S  E   S  
----------------------|----------------------|------------------------|
----------------------|----------------------|------------------------|
----------------------|----------------------|------------------------|
--5--5-4--4-5--5-7--7-|--7--7-5--5-7--7-8--8-|--8--8-7--7-8--8-10--10-|
----------------------|----------------------|------------------------|


   E   S E  S E  S E  S    E  E  S S S S E  E  S S S S  
------------------------|------------------------------|
------------------------|------------------------------|
------------------------|------------------------------|
--10--10-8--8-1--1-3--3-|--1--0----3-4-5-1--0----3-0-1-|
------------------------|------------------------------|


  E  E  S S S S S S Q       E  E  S S S S E  E  S S S S E  S S  
-------------------------|-------------------------------------|
-------------------------|-------------------------------------|
-------------------------|-------------------------------------|
--1--0----3-4-5---7------|--1--0----3-4-5-1--0----3-0-1------0-|
-------------------------|-------------------------------------|


  S S S S E  E     H           S S S S S S S S  E  Q.       
----------------|-----------|------------------------------|
----------------|-----------|------------------------------|
----------------|-----------|------------------------------|
--L-3-4-5-1--0--|-----------|--0-0-0-0-0-0-0-0-------------|
----------------|-----------|------------------12--L\------|


  S S S S S S S S  E  Q.         S. S. S S. S. S E  Q.         S S S S Q     
------------------------------|-----------------------------|---------------|
------------------------------|-----------------------------|---------------|
------------------------------|-----------------------------|---------------|
--0-0-0-0-0-0-0-0-------------|--7--7--7-7--7--7------------|--0-0-0-0------|
------------------10--L\------|------------------8--L\------|---------------|


  S S S S S S S S S S S S S S S S    S S S S S S S S S S S S S S S S  
----------------------------------|----------------------------------|
----------------------------------|----------------------------------|
----------------------------------|--3-3-3-3-3-3-3-3-----------------|
--3-3-3-3-3-3-3-3-3-3-3-3-3-3-3-3-|------------------3-3-3-3-3-3-3-3-|
----------------------------------|----------------------------------|


  S S S S S S S S S S S S S S S S    S S S S S S S S S S S S S S S S  
----------------------------------|----------------------------------|
----------------------------------|----------------------------------|
--------------------------5-5-5-5-|--3-3-3-3-3-3-3-3-----------------|
--3-3-3-3-2-2-2-2-0-0-0-0---------|------------------2-2-2-2-2-2-2-2-|
----------------------------------|----------------------------------|


  S S S S S S S S S S S S S S S S    S S S S S S S S S S S S S S S S  
----------------------------------|----------------------------------|
----------------------------------|----------------------------------|
----------------------------------|--3-3-3-3-5-5-5-5-----------------|
--3-3-3-3-3-3-3-3-3-3-3-3-3-3-3-3-|------------------0-0-0-0-0-0-0-0-|
----------------------------------|----------------------------------|


  S S S S S S S S S S S S S S S S    S S S S S S S S    Q    Q    H         
----------------------------------|------------------|---------------------|
----------------------------------|------------------|---------------------|
--3-3-3-3-3-3-3-3-5-5-5-5-5-5-5-5-|------------------|---------------------|
----------------------------------|--3-3-3-3-3-3-3-3-|------------2--------|
----------------------------------|------------------|--5----3-------------|


  Q    Q    H           Q    Q    H           Q    Q    H         
---------------------|---------------------|---------------------|
---------------------|---------------------|---------------------|
---------------------|---------------------|--2------------------|
--3----2-------------|--3----2----5--------|-------5----3--------|
------------5--------|---------------------|---------------------|


                           |-3| |-3-| |-3| |-3-| |-3| |-3-| |-3-| |-3-|  
  S Q    E  S Q    Q       E  S S S S E  S S S S E  S S S S S S S S S S  
------------------------|-----------------------------------------------|
------------------------|--7--7-7-7-7-7--7-7-7-7-7--7-7-7-7-5-5-5-5-5-5-|
------------------------|-----------------------------------------------|
--0---------------------|-----------------------------------------------|
--------------3----3----|-----------------------------------------------|


  |-3| |-3-| |-3| |-3-| |--3-| |--3-|                                         
  E  S S S S E  S S S S S S  S S S  S Q       H        Q       H        Q     
-------------------------------7-9-10------|----------------|----------------|
--7--7-7-7-7-7--7-7-7-7-7-9-10-------------|----------------|----------------|
-------------------------------------------|----------------|----------------|
-------------------------------------------|----------------|----------------|
-------------------------------------------|----------------|----------------|


  H        Q       H        Q       H        Q       H        Q     
----------------|----------------|----------------|----------------|
----------------|----------------|----------------|----------------|
----------------|----------------|----------------|----------------|
----------------|----------------|----------------|----------------|
----------------|----------------|----------------|----------------|


  H        Q       H        Q       H        Q       H        Q     
----------------|----------------|----------------|----------------|
----------------|----------------|----------------|----------------|
----------------|----------------|----------------|----------------|
----------------|----------------|----------------|----------------|
----------------|----------------|----------------|----------------|


  H        Q       H        Q       H        Q       H        Q     
----------------|----------------|----------------|----------------|
----------------|----------------|----------------|----------------|
----------------|----------------|----------------|----------------|
----------------|----------------|----------------|----------------|
----------------|----------------|----------------|----------------|


  H        Q       H        Q       H        Q       H        Q     
----------------|----------------|----------------|----------------|
----------------|----------------|----------------|----------------|
----------------|----------------|----------------|----------------|
----------------|----------------|----------------|----------------|
----------------|----------------|----------------|----------------|


  H        Q       H        Q       H        Q       H        Q      
----------------|----------------|----------------|----------------||
----------------|----------------|----------------|----------------||
----------------|----------------|----------------|----------------||
----------------|----------------|----------------|----------------||
----------------|----------------|----------------|----------------||




Duration Legend
---------------
W - whole
H - half
Q - quarter
E - 8th
S - 16th
T - 32nd
X - 64th
. - note dotted
|-n-|  - n-tuplets


Tablature Legend
----------------
L - tied note
x - dead note
g - grace note
(n) - ghost note
> - accentuded note
NH - natural harmonic
AH - artificial harmonic
TH - tapped harmonic
SH - semi harmonic
PH - pitch harmonic
h - hammer on
p - pull off
b - bend
br - bendRelease
pb - preBend
pbr - preBendRelease
brb - bendReleaseBend
\n/ - tremolo bar dip
\n - tremolo bar dive
-/n - tremolo bar Release up
/n\ - tremolo bar inverted dip
/n - tremolo bar return
-\n - tremolo bar Release down
S - shift slide
s - legato slide
/ -  slide into from below or out of upwards
\ -  slide into from above or out of downwards
~ - vibrato
W - wide vibrato
tr - trill
TP - tremolo picking
T - tapping
S - slap
P - pop
< - fade in
^ - brush up
v - brush down
comments
We did not receive enough feedback on this tab! Please rate:
print report bad tab
1 2 3 4 5
I want to post or [tab]
guest
You may want to rate the tab now too:
select rating
Please do not post tabs as comments. Select "correction" instead!