Oops, an error
Loading. Please wait.

Spoils Tab

ver1
ver1

Intro

Whole song

Interactive

More versions @911Tabs.com
6,356 views 1 this week
4 commentsread comments
1 2 3 4 5
accurate
x 4
add to favorites
launch autoscroll
font size
0
reset
Autoscroll
+/-
esc
set tempo
stop
Contributor
Difficulty
advanced
WARNING: You are trying to view
                                    content from Ultimate-Guitar.com
                                    in an unauthorized application,
                                    which is prohibited.

                                    Please use an official Ultimate
                                    Guitar Tabs application for iPhone,
                                    iPad or Android to access legitimate
                                    chords, guitar, bass, and drum tabs
                                    from Ultimate-Guitar.com database.

                                    Type "ultimate guitar tabs" in Apple
                                    App Store's or Android Market's
                                    search to find the application.
This tab has been removed at the request of the publisher
Wherever possible, Ultimate Guitar will try to work with the publisher to restore the tab to the site.
comments
print report bad tab
4 comments total. Showing first comments.
0 reply
Epic Noob wrote on June 19 2008, 11:01 am

The initial note on this section can be played at the 18th fret on
the D string, same note, different octave, but it's much easier on
the hands. n_n

e|------------------16---------------------------|
B|---------------16------------------------------|
G|---17-15----------------18\17-15---------------|
D|18-------15/16-------18----------15-------13---|
A|------------------------------------11-------11|
E|---------------------------------------11------|

e|------------------16---------------------------|
B|---------------16------------------------------|
G|---17-15----------------18\17-15---------------|
D|18-------15/16-------18----------15------------|
A|------------------------------------11h14------|
E|------------------------------------11~--------|

0 reply
[Arran] wrote on January 22 2009, 03:42 pm

Just so you know, this song is tuned to Eb/D#, and so is the rest of the album, so it will be played one fret up if you tabbed this in standard.

Nice tab though.

0 reply
icarus_complex wrote on April 5 2009, 07:24 pm

PLEEEEAAASE tab the rest of this song! im on my knees man

I want to post or [tab]
guest
You may want to rate the tab now too:
select rating
Please do not post tabs as comments. Select "correction" instead!