Oops, an error
Loading. Please wait.

Spoils Tab

ver1
ver1

Intro

Whole song

Interactive

More versions @911Tabs.com
6,676 views 9 this week
no commentswrite comment
1 2 3 4 5
excellent!
x 5
add to favorites launch autoscroll
font size
0
reset
Autoscroll
+/-
esc
set tempo
stop
Contributor
Difficulty
Tuning
advanced
D# G# C# F# A# D#
WARNING: You are trying to view
                                    content from Ultimate-Guitar.com
                                    in an unauthorized application,
                                    which is prohibited.

                                    Please use an official Ultimate
                                    Guitar Tabs application for iPhone,
                                    iPad or Android to access legitimate
                                    chords, guitar, bass, and drum tabs
                                    from Ultimate-Guitar.com database.

                                    Type "ultimate guitar tabs" in Apple
                                    App Store's or Android Market's
                                    search to find the application.
"Spoils" by Protest The Hero
Track 7 from the CD "Fortress"

Tabbed by: Brenton Seifert
bseifertguitar@gmail.com
myspace.com/breathtakerx

Tuned a Half Step Down (Eb Ab Db Gb Bb Eb)

This is the tab for only one of the guitars in this song...


eb|-17----------------17----------------17----------------15----------------|
Bb|-------15-14-------------15-14-------------15-14-------------13-12-------|
Gb|----14----------------14----------------14----------------12-------------|
Db|-------------16-14-------------------------------16-14-------------14-12-|
Ab|-------------------------------------------------------------------------|
Eb|-------------------------------------------------------------------------|


|------------------17----------------------------|
|---14----------17-------15-14-------------------|
|------16----14-------14-------------------12----|
|---------16-------------------16-14----15-------|
|-x----------------------------------12-------15-|
|------------------------------------------------|


|------------------17----------------------------|
|---14----------17-------15-14-------------------|
|------16----14-------14-------------14----17-17-|
|---------16-------------------16-14----15-------|
|-x----------------------------------------------|
|------------------------------------------------|


|------------------17----------------------------|
|---14----------17-------15-14-------------------|
|------16----14-------14-------------------12----|
|---------16-------------------16-14----15-------|
|-x----------------------------------12-------15-|
|------------------------------------------------|


|------------------17----17-13----------13-17-13-------------|
|---14----------17-------------15----15----------15----------|
|------16----14-------14----------14----------------14-------|
|---------16-------------------------------------------15----|
|-x-------------------------------------------------------17-|
|------------------------------------------------------------|


|----------------------------------------------|
|----------------------------------------------|
|----------------------------------------------|
|-2---------5-7---------5-2-----5-----7--------|
|-0-0-0-0-0-3-5-0-0-0-0-3-0-0-0-3-0-0-5-0-0-5--|
|-------------------------------------------3--|


|---------------------------------------|---|
|---------------------------------------|---|
|---------------------------------------|---|
|-2---------5-7---------8-9-----8-----7-|-5-|
|-0-0-0-0-0-3-5-0-0-0-0-6-7-0-0-6-0-0-5-|-3-|
|---------------------------------------|---|


|-------------------------------------------------|
|----------13-------11-------13-------11-------13-|
|----12-11----11-12----12-11----11-12----12-11----|
|-10----------------------------------------------|
|-------------------------------------------------|
|-------------------------------------------------|


|-------------------------------------------------------|
|----13----------13-------11-------13-------11-------13-|
|----------12-11----11-12----12-11----11-12----12-11----|
|-10----10----------------------------------------------|
|-------------------------------------------------------|
|-------------------------------------------------------|


|---------------------------------------------|
|---------------------------------------------|
|-9-\----------------4---4/7---7\6---6/9----9-|
|-9-\----2-------------5-----8-----7-----10---|
|-7-\----2------------------------------------|
|--------0---0--0-----------------------------|


|-----------------------------------------------------------------|
|-----------------------------------------------------------------|
|-9-\-------------13-14-15-16-14-15-16-17-15-16-17-18-16-17-18-19-|
|-9-\----2--------------------------------------------------------|
|-7-\----2--------------------------------------------------------|
|--------0---0--0-------------------------------------------------|


|---------------------------------------------------------------------------|
|---------------------------------------------------------------------5-7-8-|
|-9-\------------------------------9-\--------------------------4-5-7-------|
|-9-\----2---------4-5---5-4---4---9-\----2---------------4-5-7-------------|
|-7-\----2---------2-3---3-2---2---7-\----2---------3-5-7-------------------|
|--------0--0-0-0------x-----x------------0--0-0-0--------------------------|


|---------------------------------|
|---------------------------------|
|-9-\-----------------------------|
|-9-\----2---------4-5---5-4---4--|
|-7-\----2---------2-3---3-2---2--|
|--------0--0-0-0------x-----x----|


|-----------------------------------------------------------------|
|-----------------------------------------------------------------|
|-9-\--------------12-11-10-9-13-12-11-10-14-13-12-11-12-13-14-15-|
|-9-\----2--------------------------------------------------------|
|-7-\----2--------------------------------------------------------|
|--------0--0-0-0-------------------------------------------------|


|---------------------------------------------------------------------------|
|---------------------------------------------------------------------5-7-8-|
|-9-\------------------------------9-\--------------------------4-5-7-------|
|-9-\----2---------4-5---5-4---4---9-\----2---------------4-5-7-------------|
|-7-\----2---------2-3---3-2---2---7-\----2---------3-5-7-------------------|
|--------0--0-0-0------x-----x------------0--0-0-0--------------------------|


|---------------------------------
|---------------------------------
|-9-\-----------------------------
|-9-\----2---------4-5---5-4---4--
|-7-\----2---------2-3---3-2---2--
|--------0--0-0-0------x-----x----


|-----------------------------------------------------------------|
|------------------12-11-10-9-13-12-11-10-14-13-12-11-15-14-13-12-|
|-9-\-------------------------------------------------------------|
|-9-\----2--------------------------------------------------------|
|-7-\----2--------------------------------------------------------|
|--------0--0-0-0-------------------------------------------------|


|----------15---15----------|
|-------14---------14-------|
|----13---------------13----|
|-12---------------------12-|
|---------------------------|
|---------------------------|

                                        (1,2,4)            (3)
|-------------------------------------|-18-15-------------|-17-14-------------|
|----------13-------11-------13-------|-------16----------|-------15----------|
|----12-11----11-12----12-11----11-12-|----------15-------|----------14-------|
|-10----------------------------------|-------------17----|-------------16----|
|-------------------------------------|----------------18-|----------------17-|
|-------------------------------------|-------------------|-------------------|


|------------------------|
|------------------------|
|-14-------13------------|
|------------------------|
|-12-------11-------4--3-|
|-------------------2--1-|


|--------------------------------------------------------|
|--------------------------------------------------------|
|------------------------------------------------3-3-----|
|--------------------------------3-2-2-2-2---5-5-----2-2-|
|-2--2--2--2------2--2----2--2---------------------------|
|-0--0--0--0------0--0----0--0---------------------------|


|------------------------------------------|
|------------------------------------------|
|------------------------------------------|
|--------------------------------3-2-2-2-2-|
|-2--2--2--2------2--2----2--2-------------|
|-0--0--0--0------0--0----0--0-------------|


|-1p0-0-0-0-0-0-0-0-0-3p0-5p0-3p0-1p0-0-0-0-0-0-0-0-0-3p0-5p0-3p0-|
|-----------------------------------------------------------------|
|-----------------------------------------------------------------|
|-----------------------------------------------------------------|
|-----------------------------------------------------------------|
|-----------------------------------------------------------------|


|-13p0-0-0-0-0-0-0-0-0-15p0-17p0-15p0-13p0-0-0-0-0-0-0-0-0-15p0-17p0-15p0-|
|-------------------------------------------------------------------------|
|-------------------------------------------------------------------------|
|-------------------------------------------------------------------------|
|-------------------------------------------------------------------------|
|-------------------------------------------------------------------------|


|-5-7-8-7-5-0-4-5-7-5-4-0-5-7-8-7-5-0-7-0-8-0-7-0-|
|-------------------------------------------------|
|-------------------------------------------------|
|-------------------------------------------------|
|-------------------------------------------------|
|-------------------------------------------------|


|-7-8-10-8-7-0-5-7-8-7-5-0-7-8-10-8-7-0-8-0-10-0-8-0-|
|----------------------------------------------------|
|----------------------------------------------------|
|----------------------------------------------------|
|----------------------------------------------------|
|----------------------------------------------------|



|-8-10-12-10-8-0-7-8-10-8-7-0-8-10-12-10-8-0-10-0-12-0-10-0-|
|-----------------------------------------------------------|
|-----------------------------------------------------------|
|-----------------------------------------------------------|
|-----------------------------------------------------------|
|-----------------------------------------------------------|


|-10-12-13-12-10-0-12-13-15-13-12-0-13-15-17-15-13-0-15-17-19-17-15-0-|
|---------------------------------------------------------------------|
|---------------------------------------------------------------------|
|---------------------------------------------------------------------|
|---------------------------------------------------------------------|
|---------------------------------------------------------------------|


|-------------------------------------------------------|
|-------------------------------------------------------|
|--------------------------14--10--13-------------------|
|-------------------------------------------------------|
|-3--2----5-6-7----3--2----12---8--11--3--2----5-6-7--9-|
|-1--0----3-4-5----1--0----------------1--0----3-4-5--7-|


|-------------------------------------------------------|
|-------------------------------------------------------|
|--------------------------14--10--13-------------------|
|-------------------------------------------------------|
|-3--2----5-6-7----3--2----12---8--11---2--5-6-7---3--2-|
|-1--0----3-4-5----1--0-----------------0--3-4-5---1--0-|


|---------------------------------------------------------------------|
|---------------------------------------------------------------------|
|-----------------------10h11-----------------------------------------|
|---------9h10-----9h10-------9h10------------------------------------|
|-8h9-8h9------8h9----------------------------------------------------|
|-----------------------------------0-0-0---0-0-0-0---0-0-0---0-0-0-0-|


|---------------------------------------------------------------------|
|---------------------------------------------------------------------|
|-----------------------10h11-----------------------------------------|
|---------9h10-----9h10-------9h10------------------------------------|
|-8h9-8h9------8h9----------------------------------------------------|
|-----------------------------------0---0---0-0-0-0---0---0---0-0-0-0-|


|---------------------------------------------------------------|
|---------------------------------------------------------------|
|-----------------------10h11-----------------------------------|
|---------9h10-----9h10-------9h10------------------------------|
|-8h9-8h9------8h9----------------------------------------------|
|-------------------------------------0---0---0-------0---0---0-|


|----------------------------------------------------------------------------------|
|----------------------------------------------------------------------------------|
|-------------------------------------12h13----------------------------12-12-14-14-|
|-------------11h12-------------11h12-------11h12----------------------------------|
|-10h11-10h11-------10h11-10h11----------------------------------------10-10-12-12-|
|--------------------------------------------------0-0-0-0---0---0--0--------------|


|----------------------------------------------|
|----------------20-19--17---15----------------|
|-16---14---12--------------------14---12---14-|
|----------------17-16--14---12----------------|
|-14---12---10--------------------12---10---12-|
|----------------------------------------------|


|-------------------------------------------------|
|------15--------20-19--17---15-------------------|
|-16--------12--------------------12--14--12---14-|
|------12--------17-16--14---12-------------------|
|-14--------10--------------------10--12--10---12-|
|-------------------------------------------------|


|----------------------------------------------------------------|
|--------------------------15------------------------------------|
|-17---16---14---12---17--------16---12---14---17---16---14---12-|
|--------------------------12------------------------------------|
|-15---14---12---10---15--------14---10---12---15---14---12---10-|
|----------------------------------------------------------------|


|---------------------------------------------------------------------|
|-13----12-13-12----12----10-12-10----10----8-10-8----10----8-10-8----|
|----14----------14----12----------12----11--------11----11--------11-|
|---------------------------------------------------------------------|
|---------------------------------------------------------------------|
|---------------------------------------------------------------------|


|------------------------------------------------------------|
|-12----10-12-10----10----8-10-8----8---7-8-7---8-7----------|
|----12----------12----11--------11---9-------9-----9-7------|
|-------------------------------------------------------10-9-|
|------------------------------------------------------------|
|------------------------------------------------------------|


|-----------------------------------------------------10-8------------|
|-13----12-13-12----12----10-12-10----10----8-10-8---------12-10-8----|
|----14----------14----12----------12----11--------11--------------11-|
|---------------------------------------------------------------------|
|---------------------------------------------------------------------|
|---------------------------------------------------------------------|


|------------------------------------------------------------|
|-12----10-12-10----10----8-10-8----8---7-8-7---8-7----------|
|----12----------12----11--------11---9-------9-----9-7------|
|-------------------------------------------------------10-9-|
|------------------------------------------------------------|
|------------------------------------------------------------|


|-----------------9--------------|
|-10----9-10-9---------9-10-9----|
|----11--------11---11--------11-|
|--------------------------------|
|--------------------------------|
|--------------------------------|


|-17----------------17----------------17----------------15----------------|
|-------15-14-------------15-14-------------15-14-------------13-12-------|
|----14----------------14----------------14----------------12-------------|
|-------------16-14-------------------------------16-14-------------14-12-|
|-------------------------------------------------------------------------|
|-------------------------------------------------------------------------|


|-17----------------17----------------17----------------|
|-------15-14-------------15-14-------------15-14-------|
|----14----------------14----------------14-------15-14-|
|-------------16-14-------------------------------------|
|-------------------------------------------------------|
|-------------------------------------------------------|





************************************

| /   slide up
| \   slide down
| h   hammer-on
| p   pull-off
| ~   vibrato
| +   harmonic
| x   Mute note
| b   Bend
| pb  Pre-bend
| br  Bend release
| pbr Pre-bend release
| brb Bend release bend

************************************

comments
print report bad tab
I want to post or [tab]
guest
You may want to rate the tab now too:
select rating
Please do not post tabs as comments. Select "correction" instead!