Oops, an error
Loading. Please wait.

Tapestry Tab

ver1
ver1

Intro

Whole song

Interactive

More versions @911Tabs.com
2,283 views 15 this week
2 commentsread comments
1 2 3 4 5
excellent!
x 3
Autoscroll
+/-
esc
set tempo
stop
Contributor
Tuning
D# G# C# F# A# D#
Hey! There's an official Ultimate Guitar app which is ideal
for learning songs when you're away from computer. Get the app
WARNING: You are trying to view
                                    content from Ultimate-Guitar.com
                                    in an unauthorized application,
                                    which is prohibited.

                                    Please use an official Ultimate
                                    Guitar Tabs application for iPhone,
                                    iPad or Android to access legitimate
                                    chords, guitar, bass, and drum tabs
                                    from Ultimate-Guitar.com database.

                                    Type "ultimate guitar tabs" in Apple
                                    App Store's or Android Market's
                                    search to find the application.
                                  Tapestry                                     


                  Protest The Hero




      S S S S S  S S S S  E   S  E   E      S S S  S S  S S S  S S  S S  E  E   
D#||------------------------------------|--------------------------------------|
A#||------------------------------------|--------------------------------------|
F#||------------------------------------|--12-9---11--------9------------------|
C#||---------------------11-----14--11--|--------------11-----11-9-------------|
G#||--9-----7---10---9-------10---------|--------------------------11-9-10-----|
D#||----9-------------------------------|-----------------------------------9--|


  S S S S S  S S S S  E   S  E   E   
------------------------------------|
------------------------------------|
------------------------------------|
---------------------11-----14--11--|
--9-----7---10---9-------10---------|
----9-------------------------------|


   T  T S  T  T S  S  S S S S S S S S S S S  
--------------------------------------------|
--------------------------------------------|
--12-11-9-12-11-9-----------------6-8-6-----|
------------------11------------------------|
---------------------12-7-------9-------9---|
--------------------------9-5-7-----------7-|


  S S S S S  S S S S  E   S  E   E      S S S  S S  S S S  S S  S S  E  E   
------------------------------------|--------------------------------------|
------------------------------------|--------------------------------------|
------------------------------------|--12-9---11--------9------------------|
---------------------11-----14--11--|--------------11-----11-9-------------|
--9-----7---10---9-------10---------|--------------------------11-9-10-----|
----9-------------------------------|-----------------------------------9--|


                                       PM PM PM PM PM PM PM                    
  S S S S S  S S S S  E   S  E   E     S  S  S  S  S  S  S  S S S S S S S  E   
------------------------------------|-----------------------------------------|
------------------------------------|-------------------------5-7-9-5-7-9-12--|
------------------------------------|-----------------------6-----------------|
---------------------11-----14--11--|--------4--6-----4--6--------------------|
--9-----7---10---9-------10---------|-----7--------7--------------------------|
----9-------------------------------|--5--------------------------------------|


  S S S S S  S S S S  E   S  E   E      S S S  S S  S S S  S S  S S  E  E   
------------------------------------|--------------------------------------|
------------------------------------|--------------------------------------|
------------------------------------|--12-9---11--------9------------------|
---------------------11-----14--11--|--------------11-----11-9-------------|
--9-----7---10---9-------10---------|--------------------------11-9-10-----|
----9-------------------------------|-----------------------------------9--|


  S S S S S  S S S S  E   S  E   E   
------------------------------------|
------------------------------------|
------------------------------------|
---------------------11-----14--11--|
--9-----7---10---9-------10---------|
----9-------------------------------|


   T  T S  T  T S  S  S S S S S S S S S S S  
--------------------------------------------|
--------------------------------------------|
--12-11-9-12-11-9-----------------6-8-6-----|
------------------11------------------------|
---------------------12-7-------9-------9---|
--------------------------9-5-7-----------7-|


  S S S S S  S S S S  E   S  E   E      S S S  S S  S S S  S S  S S  E  E   
------------------------------------|--------------------------------------|
------------------------------------|--------------------------------------|
------------------------------------|--12-9---11--------9------------------|
---------------------11-----14--11--|--------------11-----11-9-------------|
--9-----7---10---9-------10---------|--------------------------11-9-10-----|
----9-------------------------------|-----------------------------------9--|


                                       PM PM PM PM PM PM PM                    
  S S S S S  S S S S  E   S  E   E     S  S  S  S  S  S  S  S S S S S S S  E   
------------------------------------|-----------------------------------------|
------------------------------------|-------------------------5-7-9-5-7-9-12--|
------------------------------------|-----------------------6-----------------|
---------------------11-----14--11--|--------4--6-----4--6--------------------|
--9-----7---10---9-------10---------|-----7--------7--------------------------|
----9-------------------------------|--5--------------------------------------|


  S S S S S S S S S S S S S S S S    S S S  S S S S S S S S  S S S S S  
----------------------------------|------------------------------------|
----------------------------------|-------------------6--------9-------|
----------------------------------|------9-10-----------4--------7-----|
----------------------------6-7-9-|--7-9------9-7---7-----3S-6-----6-0-|
--0-4-6-7-0-0---0---0-4-6-7-------|------------------------------------|
----------------------------------|------------------------------------|


  S S S S S S S S S S S S S S S S    S S S S S S S S S S S S S S S S  
----------------------------------|----------------------------------|
----------------------------------|------5-6-8-6-5-------------------|
----------------------------------|----------------6-4---------------|
----------------------------6-7-9-|--7-9---------------7-5-3---------|
--0-4-6-7-0-0---0---0-4-6-7-------|--------------------------2-4-2-0-|
----------------------------------|----------------------------------|


  S S S S S S S S E  S S    S S S S E  E  Q       S S S S S S S S E  S S  
-------------------------|---------------------|-------------------------|
-------------------------|---------------------|-------------------------|
-------------------------|---------------------|-------------------------|
------------------6------|----------3----------|------------------6------|
-------------------------|---------------------|-------------------------|
--2-2---2---2---2----2---|--2-2---2----2--1----|--2-2---2---2---2----2---|


  S S S S E  E     S S S S S S S S S S S S S S S S  
----------------|----------------------------------|
----------------|----------------------------------|
----------------|----------------------------------|
----------3-----|----------------------------6-7-9-|
----------------|--0-4-6-7-0-0---0---0-4-6-7-------|
--x-x-x-2----2--|----------------------------------|


  S S S  S S S S S S S S  S S S S S    S S S S S S S S S S S S S S S S  
------------------------------------|----------------------------------|
-------------------6--------9-------|----------------------------------|
------9-10-----------4--------7-----|----------------------------------|
--7-9------9-7---7-----3S-6-----6-0-|----------------------------6-7-9-|
------------------------------------|--0-4-6-7-0-0---0---0-4-6-7-------|
------------------------------------|----------------------------------|


  S S S S S S S S S S S S S S S S    S S S S S S S S E  S S S S S S  
----------------------------------|---------------------------------|
------5-6-8-6-5-------------------|---------------------------------|
----------------6-4---------------|---------------------------------|
--7-9---------------7-5-3---------|------------------6--------------|
--------------------------2-4-2-0-|---------------------------------|
----------------------------------|--2-2---2---2---2----2---2-2---2-|


  E  E  Q    S S S S S S S S    E  S S S S S S E  E   
-----------------------------|-----------------------|
-----------------------------|-----------------------|
-----------------------------|-----------------------|
--3--------------------------|--6--------------3-----|
-----------------------------|-----------------------|
-----2--1----2-2---2---2---2-|-----2---x-x-x-x----2--|


  S S S S S S S E  S S S S S S S    S S S S S S S E  S E  S E  S  
---------------------------------|-------------------------------|
---------------------------------|-------------------------------|
----------------2--------2-------|-------------------------------|
---------------------------------|-------------------------------|
--3-4-3-0-3-4------4-3-0---4-3-0-|--3-4-3-0-3-4------------------|
---------------------------------|--------------2-2--2-2--2-2--2-|


  S S S S S S S E  S S S S S S S    S S S S S S S S E  S S S S S S  
---------------------------------|---------------------------------|
---------------------------------|---------------------------------|
----------------2--------2-------|---------------------------------|
---------------------------------|------------------6--------------|
--3-4-3-0-3-4------4-3-0---4-3-0-|---------------------------------|
---------------------------------|--2-2---2---2---2----2---2-2---2-|


  E  E  Q    S S S S S S S S    E  S S S S S S E  E   
-----------------------------|-----------------------|
-----------------------------|-----------------------|
-----------------------------|-----------------------|
--3--------------------------|--6--------------3-----|
-----------------------------|-----------------------|
-----2--1----2-2---2---2---2-|-----2---x-x-x-x----2--|


  S S S S S S S S S S S S S S S S    S S S S S S S S S S S S S S S S  
------------1-----------1-----1-1-|------------1-----------1-----1-1-|
------------1-----------1-----1-1-|------------1-----------1-----1-1-|
------------2-----------2-----2-2-|------------2-----------2-----2-2-|
------------3-----------3-----3-3-|------------3-----------3-----3-3-|
----------------------------------|----------------------------------|
--1-1-1-1-1---1-1-1-1-1---1-1-----|--1-1-1-1-1---1-1-1-1-1---1-1-----|


  S S S S S S S S S S S S S S S S    S S S S S S S S S S S S S S S S  
------------5-----------5-----5-5-|------------5-----------5-----5-5-|
------------5-----------5-----5-5-|------------5-----------5-----5-5-|
------------6-----------6-----6-6-|------------6-----------6-----6-6-|
------------7-----------7-----7-7-|------------7-----------7-----7-7-|
----------------------------------|----------------------------------|
--5-5-5-5-5---5-5-5-5-5---5-5-----|--5-5-5-5-5---5-5-5-5-5---5-5-----|


  S S S S S S S S S S S S S S S S    S S S S S S S S S S S S S S S S  
------------1-----------1-----1-1-|------------1-----------1-----1-1-|
------------1-----------1-----1-1-|------------1-----------1-----1-1-|
------------2-----------2-----2-2-|------------2-----------2-----2-2-|
------------3-----------3-----3-3-|------------3-----------3-----3-3-|
----------------------------------|----------------------------------|
--1-1-1-1-1---1-1-1-1-1---1-1-----|--1-1-1-1-1---1-1-1-1-1---1-1-----|


  S S S S S S S S S S S S S S S S    S S S S S S S S S S S S S S S S  
------------5-----------5-----5-5-|------------5-----------5-----5-5-|
------------5-----------5-----5-5-|------------5-----------5-----5-5-|
------------6-----------6-----6-6-|------------6-----------6-----6-6-|
------------7-----------7-----7-7-|------------7-----------7-----7-7-|
----------------------------------|----------------------------------|
--5-5-5-5-5---5-5-5-5-5---5-5-----|--5-5-5-5-5---5-5-5-5-5---5-5-----|


  S S S S S S S S S S S S S S S S    S S S S S S S S S S S S S S S S  
------------4-----------4-----4-4-|------------7-----------7-----7-7-|
------------4-----------4-----4-4-|------------7-----------7-----7-7-|
------------5-----------5-----5-5-|------------8-----------8-----8-8-|
------------6-----------6-----6-6-|------------9-----------9-----9-9-|
----------------------------------|----------------------------------|
--4-4-4-4-4---4-4-4-4-4---4-4-----|--7-7-7-7-7---7-7-7-7-7---7-7-----|


  S S S S S S S S S S S S S S S S    Q    Q    Q    Q     
------------2-----------2-----2-2-|-------0---------0----|
------------2-----------2-----2-2-|-------0---------0----|
------------3-----------4-----3-3-|----------------------|
------------4-----------4-----4-4-|--7---------9---------|
----------------------------------|--7---------9---------|
--2-2-2-2-2---2-2-2-2-2---2-2-----|--5---------7---------|


  S S S S S  S S S S  E   S  E   E      S S S  S S  S S S  S S  S S  E  E   
------------------------------------|--------------------------------------|
------------------------------------|--------------------------------------|
------------------------------------|--12-9---11--------9------------------|
---------------------11-----14--11--|--------------11-----11-9-------------|
--9-----7---10---9-------10---------|--------------------------11-9-10-----|
----9-------------------------------|-----------------------------------9--|


  S S S S S  S S S S  E   S  E   E   
------------------------------------|
------------------------------------|
------------------------------------|
---------------------11-----14--11--|
--9-----7---10---9-------10---------|
----9-------------------------------|


   T  T S  T  T S  S  S S S S S S S S S S S  
--------------------------------------------|
--------------------------------------------|
--12-11-9-12-11-9-----------------6-8-6-----|
------------------11------------------------|
---------------------12-7-------9-------9---|
--------------------------9-5-7-----------7-|


  S S S S S  S S S S  E   S  E   E      S S S  S S  S S S  S S  S S  E  E   
------------------------------------|--------------------------------------|
------------------------------------|--------------------------------------|
------------------------------------|--12-9---11--------9------------------|
---------------------11-----14--11--|--------------11-----11-9-------------|
--9-----7---10---9-------10---------|--------------------------11-9-10-----|
----9-------------------------------|-----------------------------------9--|


                                       PM PM PM PM PM PM PM                    
  S S S S S  S S S S  E   S  E   E     S  S  S  S  S  S  S  S S S S S S S  E   
------------------------------------|-----------------------------------------|
------------------------------------|-------------------------5-7-9-5-7-9-12--|
------------------------------------|-----------------------6-----------------|
---------------------11-----14--11--|--------4--6-----4--6--------------------|
--9-----7---10---9-------10---------|-----7--------7--------------------------|
----9-------------------------------|--5--------------------------------------|


  S S S S S S S S S S S S S S S S    S S S  S S S S S S S S  S S S S S  
----------------------------------|------------------------------------|
----------------------------------|-------------------6--------9-------|
----------------------------------|------9-10-----------4--------7-----|
----------------------------6-7-9-|--7-9------9-7---7-----3S-6-----6-0-|
--0-4-6-7-0-0---0---0-4-6-7-------|------------------------------------|
----------------------------------|------------------------------------|


  S S S S S S S S S S S S S S S S    S S S S S S S S S S S S S S S S  
----------------------------------|----------------------------------|
----------------------------------|------5-6-8-6-5-------------------|
----------------------------------|----------------6-4---------------|
----------------------------6-7-9-|--7-9---------------7-5-3---------|
--0-4-6-7-0-0---0---0-4-6-7-------|--------------------------2-4-2-0-|
----------------------------------|----------------------------------|


  S S S S S S S S E  S S S S S S    E  E  Q    S S S S S S S S  
---------------------------------|-----------------------------|
---------------------------------|-----------------------------|
---------------------------------|-----------------------------|
------------------6--------------|--3--------------------------|
---------------------------------|-----------------------------|
--2-2---2---2---2----2---2-2---2-|-----2--1----2-2---2---2---2-|


  E  S S S S S S E  E     S S S S S S S E  S S S S S S S  
-----------------------|---------------------------------|
-----------------------|---------------------------------|
-----------------------|----------------2--------2-------|
--6--------------3-----|---------------------------------|
-----------------------|--3-4-3-0-3-4------4-3-0---4-3-0-|
-----2---x-x-x-x----2--|---------------------------------|


  S S S S S S S S S S S S S S S S    S S S S S E  S H         
----------------------------------|--------------------------|
----------------------------------|--------------------------|
----------------------------------|--------------------------|
----------------------------------|--------------------------|
--3-4-3-0-3-4---------------------|--------------------------|
--------------2-2---2-2---2-2---2-|----2-2---2-2-------------|


  S S S S S S S S E  S E  S S S    S S S S S S S S S S S S S S S S  
--------------------------------|----------------------------------|
--------------------------------|----------------------------------|
--------------------------------|----------------------------------|
--------------------------------|----------------------------------|
--3-4-3-0-3-4-------------------|--------------------3-4-3-0-3-4---|
----------------2-2--2-2--2-2---|--2---2-2---2-2---2---------------|


  S E  S E  S S S S S S S S S S    S S S S S S S S S S E  S E  S  
--------------------------------|--------------------------------|
--------------------------------|--------------------------------|
--------------------------------|--------------------------------|
--------------------------------|--------------------------------|
--------------------------------|------3-4-3-0-3-4---------------|
--2-2--2-2--2-2---2---2-2---2-2-|----2---------------2-2--2-2--2-|


  S S S S S S S S S S S S S S S S    S S S E  S E  S S S S S S S S  
----------------------------------|--------------------------------|
----------------------------------|--------------------------------|
----------------------------------|--------------------------------|
----------------------------------|--------------------------------|
------------------------3-4-3-0-3-|--4-----------------------------|
--2---2---2-2---2-2---2-----------|------2-2--2-2--2-2---2---2-2---|


  S S S S S S S S S S S S S S S S    S S S S S S S S S Q.     S  
----------------------------------|-----------------------------|
----------------------------------|-----------------------------|
----------------------------------|--------------------2--------|
----------------------------------|--------------------3--------|
----------3-4-3-0-3-4-------------|--------------------3------L-|
--2-2---2---------------2-2-2---2-|--2-2---2-2-2---2-2-1------L-|


                                             NH      NH      NH        
  W                   W                      Q       Q       H         
-------------------|-------------------|--<>12------------------------|
-------------------|-------------------|----------<>12----------------|
-------------------|--L----------------|------------------------------|
-------------------|-------------------|------------------<>19--------|
--L----------------|--L----------------|------------------------------|
--L----------------|--L----------------|------------------------------|


     NH      NH      NH                                        
     Q       Q       H           E  E     E  E  E   E   E  E   
--<>12------------------------|-------------------------------|
----------<>12----------------|-------------------------------|
------------------------------|-------------------------------|
------------------<>19--------|--7--9--9g11--9--7--/9--/9--7--|
------------------------------|-------------------------------|
------------------------------|-------------------------------|


                                 NH      NH      NH        
  E  E  E     Q     Q.           Q       Q       H         
---------------------------|--<>12------------------------|
-------------------10------|----------<>12----------------|
--------------------9------|------------------------------|
--L--7--9--9g11-----7------|------------------<>19--------|
---------------------------|------------------------------|
---------------------------|------------------------------|


     NH      NH      NH                                               
     Q       Q       H            E   E   E   E   E      E    E   E   
--<>12------------------------|--------------------------------------|
----------<>12----------------|--10--12--14--12--10--10g12S--10--10--|
------------------------------|--------------------------------------|
------------------<>19--------|---7---9--11---9---7----7g9S---7---7--|
------------------------------|--------------------------------------|
------------------------------|--------------------------------------|


  Q     E   E   H             S S S S S S S S S S S S S S S S  
---------------------------|------------------------5---------|
--L----10--12--14br--------|----------------------6-----------|
---------------------------|--------------------6-------------|
--L-----7---9--11br--------|--------7---------7---------------|
---------------------------|--8-8-8---------8-----------------|
---------------------------|----------------------------------|


   S  S  S  S  S S S S S S S S S S S S  
--13-----------------------------------|
-----14--------------------------------|
--------14-----------------------------|
-----------15------------------7-------|
--------------16---------8-8-8---------|
---------------------------------------|


  S S S S S S S S S  S  S  S  S  S  S  S  
----------5---------13-------------------|
--------6--------------14----14----------|
------6-------------------14----14----14-|
----7------------------------------15----|
--8--------------------------------------|
-----------------------------------------|


   S  S  S  S  S  Q     S  S S  S  S S  S  
------------------------------------------|
------------------------------------------|
------------------------------------------|
--15----15--------------------------------|
-----16----16-12-13----12-12-----------12-|
-------------------------------12-12------|


  S  S S S S S  S  S S S S S  S  S  S  S  
-----------------------9-----12-12-17-12-|
---------------10-10---------------------|
---------9-9-----------------------------|
----11-----------------------------------|
-----------------------------------------|
-----------------------------------------|


   S  S  S  S  S S S S S  S  S S  S  S S  S  
--------------------------------------------|
--14----------------------------------------|
-----14-------------------------------------|
--------14----------------------------------|
-----------16-12---------12-12-----------12-|
---------------------------------12-12------|


  S  S S S S S  S  S S S S S  S  S  S  S     S  S  S  S  S S S S  
-----------------------9-----12-12-17-12-|-----------------------|
---------------10-10---------------------|--14-------------------|
---------9-9-----------------------------|-----14----------------|
----11-----------------------------------|--------14-------------|
-----------------------------------------|-----------16-12-------|
-----------------------------------------|-----------------------|


  S S S S S S S S S S S S S S S S     S  S  S  S  S S S S S S S S S S S S  
------------------------5---------|--13-----------------------------------|
----------------------6-----------|-----14--------------------------------|
--------------------6-------------|--------14-----------------------------|
--------7---------7---------------|-----------15------------------7-------|
--8-8-8---------8-----------------|--------------16---------8-8-8---------|
----------------------------------|---------------------------------------|


  S S S S S S S S S  S  S  S  S  S  S  S  
----------5---------13-------------------|
--------6--------------14----14----------|
------6-------------------14----14----14-|
----7------------------------------15----|
--8--------------------------------------|
-----------------------------------------|


   S  S  S  S  S  Q     S  S S  S  S S  S  
------------------------------------------|
------------------------------------------|
------------------------------------------|
--15----15--------------------------------|
-----16----16-12-13----12-12-----------12-|
-------------------------------12-12------|


  S  S S S S S  S  S S S S S  S  S  S  S  
-----------------------9-----12-12-17-12-|
---------------10-10---------------------|
---------9-9-----------------------------|
----11-----------------------------------|
-----------------------------------------|
-----------------------------------------|


   S  S  S  S  S S S S S  S  E   S  E   S    S  E  S E   S  E  E.   S  S  S  S  
------------------------------------------|--------------------9---12-12-17-12-|
--14--------------------------------------|-------------10-10------------------|
-----14-----------------------------------|--------9-9-------------------------|
--------14--------------------------------|----11------------------------------|
-----------16-12---------12-12---------12-|--L---------------------------------|
--------------------------------12-12-----|------------------------------------|


   S  S  S  S  S    E  E  E  E  E  E  E  E     E  E  E  E  E  E  E  E   
-----------------|--------------------------|--------------------------|
--14-------------|--------------------------|--------------------------|
-----14----------|--------------------------|--------------------------|
--------14-------|--8--8--8--8--8--8--8--8--|--8--8--8--8--8--8--8--8--|
-----------16-12-|--8--8--8--8--8--8--8--8--|--8--8--8--8--8--8--8--8--|
-----------------|--6--6--6--6--6--6--6--6--|--6--6--6--6--6--6--6--6--|


  E  E  E  E  E  E  E  E     E  E  E   E  E   E  E   E   
--------------------------|-----------------------------|
--------------------------|-----------------------------|
--------------------------|-----------10--9--10--7--10--|
--7--7--7--7--7--7--7--7--|--0--7--8--------------------|
--5--5--5--5--5--5--5--5--|-----------------------------|
--5--5--5--5--5--5--5--5--|-----------------------------|


  E  E  E  E  E  E  E  E     E  E  E  E  E  E  E  E   
--------------------------|--------------------------|
--------------------------|--------------------------|
--------------------------|--------------------------|
--8--8--8--8--8--8--8--8--|--8--8--8--8--8--8--8--8--|
--8--8--8--8--8--8--8--8--|--8--8--8--8--8--8--8--8--|
--6--6--6--6--6--6--6--6--|--6--6--6--6--6--6--6--6--|


  E  E  E  E  E  E  E  E     E  E  E   E  E   E  E   E   
--------------------------|-----------------------------|
--------------------------|-----------------------------|
--------------------------|-----------10--9--10--7--10--|
--7--7--7--7--7--7--7--7--|--0--7--8--------------------|
--5--5--5--5--5--5--5--5--|-----------------------------|
--5--5--5--5--5--5--5--5--|-----------------------------|


  E  E  E  E  E  E  E  E     E  E  E  E  E  E  E  E   
--------------------------|--------------------------|
--------------------------|--------------------------|
--------------------------|--------------------------|
--5--5--5--5--5--5--5--5--|--7--7--7--7--7--7--7--7--|
--5--5--5--5--5--5--5--5--|--7--7--7--7--7--7--7--7--|
--3--3--3--3--3--3--3--3--|--5--5--5--5--5--5--5--5--|


  E  E  E  E  E  E  E  E     S S S S S S S S  S S S S S S S S  
--------------------------|------------5-7-8-13-8-7-5---------|
--------------------------|----------6----------------6-------|
--------------------------|--------5--------------------5-----|
--7--7--7--7--7--7--7--7--|------7------------------------7---|
--7--7--7--7--7--7--7--7--|--3-8----------------------------8-|
--5--5--5--5--5--5--5--5--|-----------------------------------|


  S S S S S S S S  S S S S S S S S    S S S S S S S S  S S S S S S S S  
------------5-7-8-13-8-7-5---------|------------5-7-9-14-9-7-5---------|
----------6----------------6-------|----------7----------------7-------|
--------5--------------------5-----|--------6--------------------6-----|
------7------------------------7---|------7------------------------7---|
--3-8----------------------------8-|--4-9----------------------------9-|
-----------------------------------|-----------------------------------|


  S S S S S S S S  S S S S S S S S    S S S S S S S S  S S S S S S S S  
------------5-7-9-14-9-7-5---------|------------5-7-8-13-8-7-5---------|
----------7----------------7-------|----------6----------------6-------|
--------6--------------------6-----|--------5--------------------5-----|
------7------------------------7---|------7------------------------7---|
--4-9----------------------------9-|--3-8----------------------------8-|
-----------------------------------|-----------------------------------|


  S S S S S S S S  S S S S S S S S    S S S S S S S S  S S S S S S S S  
------------5-7-8-13-8-7-5---------|------------5-7-9-14-9-7-5---------|
----------6----------------6-------|----------7----------------7-------|
--------5--------------------5-----|--------6--------------------6-----|
------7------------------------7---|------7------------------------7---|
--3-8----------------------------8-|--4-9----------------------------9-|
-----------------------------------|-----------------------------------|


  S S S S S S S S  S S S S S S S S  
------------5-7-9-14-9-7-5---------|
----------7----------------7-------|
--------6--------------------6-----|
------7------------------------7---|
--4-9----------------------------9-|
-----------------------------------|


  S  S  S S  S S  S  S  S  S  S S  S S  S  S  
---------------9-11-12-17-12-11-9------------|
------------10--------------------10---------|
----------9--------------------------9-------|
-------11------------------------------11----|
--7-12------------------------------------12-|
---------------------------------------------|


   S  S  S  S  S  S  S  S  S  S  S  S  S  S  S  S  
-----------------13-15-16-21-16-15-13-------------|
--------------14----------------------14----------|
-----------13----------------------------13-------|
--------15----------------------------------15----|
--11-16----------------------------------------16-|
--------------------------------------------------|


  S  S  S S  S S  S  S  S  S  S S  S S  S  S  
---------------9-11-12-17-12-11-9------------|
------------10--------------------10---------|
----------9--------------------------9-------|
-------11------------------------------11----|
--7-12------------------------------------12-|
---------------------------------------------|


   S  S  S  S  S  S  S  S  S Q    E  S    S S S S S S S S S S S S S S S S  
-----------------13-15-16-21-----------|----------------------------------|
--------------14-----------------------|----------------------------------|
-----------13--------------------------|--------------4-5-------------4-5-|
--------15-----------------------------|--5-2---2-5---------5-2---2-5-----|
--11-16--------------------------------|------3-----------------3---------|
---------------------------------------|----------------------------------|


  S S S S S S S S S S S S S S S S    S S S S S S S S S S S S S S S S  
----------------------------------|----------------------------------|
----------------------------------|----------------------------------|
--------------4-5-------------4-5-|--------------------------------5-|
--5-2---2-5---------5-2---2-5-----|--------------2-3---5-7---7-8-----|
------3-----------------3---------|--------3-5-----------------------|
----------------------------------|--5-6-----------------------------|


  S S S S S S  S S  S  S S S  S S S S    E  E  E  E   E  E  E  E   
--------------------------------------|-----------8--10--8--------|
------5-6---8-10---10-11---8-10---5-6-|--5--6--8------------8--5--|
--7-----------------------------------|---------------------------|
--------------------------------------|---------------------------|
--------------------------------------|---------------------------|
--------------------------------------|---------------------------|


  W                   S S S S S S S S S S S S S S S S  
-------------------|----------------------------------|
--8----------------|----------------------------------|
-------------------|--------------------------------5-|
-------------------|--------------2-3---5-7---7-8-----|
-------------------|--------3-5-----------------------|
-------------------|--5-6-----------------------------|


  S S S S S S  S S  S  S S S  S S S S    S S  S S  S S S S  E  S S S S S S  
--------------------------------------|--------------8-7-8-12----7-8-7-----|
------5-6---8-10---10-11---8-10-------|------------------------8-------8---|
--7-----------------------------------|----------------------------------9-|
--------------------------------------|---------9-10-----------------------|
--------------------------------------|----7-10----------------------------|
--------------------------------------|--8---------------------------------|


  W                   S S S S S S S S S S S S S S S S  
-------------------|----------------------------------|
--8----------------|----------------------------------|
-------------------|--------------------------------5-|
-------------------|--------------2-3---5-7---7-8-----|
-------------------|--------3-5-----------------------|
-------------------|--5-6-----------------------------|


  S S S S S S  S S  S  S S S  S  S S  S  
----------------------------------------|
------5-6---8-10---10-11---8-10---------|
--7-----------------------------10-9-10-|
----------------------------------------|
----------------------------------------|
----------------------------------------|


  S S S S S S S S S  S S  S  S  S  S  S     W                 
----------------------------------------|--------------------|
------5-6-----6-8------8-10-------10-12-|--13----------------|
--5-7-----7-9-----9-10------10-12-------|--------------------|
----------------------------------------|--------------------|
----------------------------------------|--------------------|
----------------------------------------|--------------------|


  S S S S S S S S S S S S S S S S    S S S S S S  S S  S  S S S  S S S S  
----------------------------------|--------------------------------------|
----------------------------------|------5-6---8-10---10-11---8-10-------|
--------------------------------5-|--7-----------------------------------|
--------------2-3---5-7---7-8-----|--------------------------------------|
--------3-5-----------------------|--------------------------------------|
--5-6-----------------------------|--------------------------------------|


    S S S S S S S S S S S S S S S S    S S S S S S S S S S S S S S S S  
|-----------------------------------|----------------------------------|
|-----7-8---------------------------|----------------------------------|
|*--8-------7-8---4-5---------------|----------------------------------|
|*----------------------4-5---0-1---|--1-4-5---0-1---------------------|
|-----------------------------------|----------------2-3---------2-3---|
|-----------------------------------|----------------------3-4---------|


    S S S S S S S S S S S S S S S S    S S S S S S S S  S S  S  S S S  S S    
------------------------------------|---------------------------------------||
------------------------------------|----------5-6---8-10---10-11---8-10----||
------------------------------------|----5-7-------------------------------*||
--------------------2-3---5-7---7-8-|--------------------------------------*||
--------------3-5-------------------|---------------------------------------||
--2g3-7-5-6-------------------------|---------------------------------------||


  S S H.           E    
----------------------||
--5-6-8------------L--||
----------------------||
----------------------||
----------------------||
----------------------||




Duration Legend
---------------
W - whole
H - half
Q - quarter
E - 8th
S - 16th
T - 32nd
X - 64th
. - note dotted
|-n-|  - n-tuplets


Tablature Legend
----------------
L - tied note
x - dead note
g - grace note
(n) - ghost note
> - accentuded note
NH - natural harmonic
AH - artificial harmonic
TH - tapped harmonic
SH - semi harmonic
PH - pitch harmonic
h - hammer on
p - pull off
b - bend
br - bendRelease
pb - preBend
pbr - preBendRelease
brb - bendReleaseBend
\n/ - tremolo bar dip
\n - tremolo bar dive
-/n - tremolo bar Release up
/n\ - tremolo bar inverted dip
/n - tremolo bar return
-\n - tremolo bar Release down
S - shift slide
s - legato slide
/ -  slide into from below or out of upwards
\ -  slide into from above or out of downwards
~ - vibrato
W - wide vibrato
tr - trill
TP - tremolo picking
T - tapping
S - slap
P - pop
< - fade in
^ - brush up
v - brush down
comments
We did not receive enough feedback on this tab! Please rate:
print report bad tab
1 2 3 4 5
2 comments total.
0 reply
ThrashRaptor wrote on March 14 2012, 11:53 pm

Spot on.

And convenient for those lacking Guitar Pro or an alternative.

5*!

0 reply
beastlyorion wrote on April 3 2013, 05:46 pm

dat intro is so much fun to play!

I want to post or [tab]
guest
You may want to rate the tab now too:
select rating
Please do not post tabs as comments. Select "correction" instead!