Oops, an error
Loading. Please wait.

The Dissentience Bass Tab

ver1
ver1

Whole song

Interactive

More versions @911Tabs.com
5,448 views 3 this week
no commentswrite comment
1 2 3 4 5
excellent!
x 1
Autoscroll
+/-
esc
set tempo
stop
Hey! There's an official Ultimate Guitar app which is ideal
for learning songs when you're away from computer. Get the app
WARNING: You are trying to view
                                    content from Ultimate-Guitar.com
                                    in an unauthorized application,
                                    which is prohibited.

                                    Please use an official Ultimate
                                    Guitar Tabs application for iPhone,
                                    iPad or Android to access legitimate
                                    chords, guitar, bass, and drum tabs
                                    from Ultimate-Guitar.com database.

                                    Type "ultimate guitar tabs" in Apple
                                    App Store's or Android Market's
                                    search to find the application.
Arif Mirabdolbaghi

For all of you who do not have guitar pro. Tabbed by Tom DeLonge II.

      S S S S S S S S    S S S S S S S S S S S S S S S S  
F#||------------------|----------------------------------|
C#||--6-7-9-7-6-------|----------------------------------|
G#||------------8-7-5-|--7-----5---7---8---7-------------|
D#||------------------|----0-0---0---0---0---0-3-5-6-5-3-|
A#||------------------|----------------------------------|


  S S S S S S S S S S S S S S S S    S S S S S S S S S S S S S S S S  
----------------------------------|----------------------------------|
------------------6-7-9-7-6-------|----------------------------------|
--7-----5---7---------------8-7-5-|--7-----5---7---8---7-------------|
----0-0---0---0-0-----------------|----0-0---0---0---0---0-3-5-6-5-3-|
----------------------------------|----------------------------------|


          |--3--|                                                        
  S S S S S  S  S S E  S S S S S S S    S S S S S S S S S S S S S S S S  
-------------------------------------|----------------------------------|
---------------------------------5---|----------------------------------|
----7-5---5h-7p-5------------------6-|--7-----5---7---8---7-------------|
--0-----7---------7-6--0-3-0-5-0-----|----0-0---0---0---0---0-3-5-6-5-3-|
-------------------------------------|----------------------------------|


  S S S S S S S S S S S S S S S S    S S S S S S S S S S S S S S S S  
----------------------------------|----------------------------------|
------------------6-7-9-7-6-------|----------------------------------|
--7-----5---7---------------8-7-5-|--7-----5---7---8---7-------------|
----0-0---0---0-0-----------------|----0-0---0---0---0---0-3-5-6-5-3-|
----------------------------------|----------------------------------|


                                             |--3--|                     
  S S S S S S S S S S S S S S S S    S S S S S  S  S S E  S S S S S S S  
----------------------------------|-------------------------------------|
--6-7-9-7-6-----------6-----------|-------------------------------------|
------------8-7-5-7-8---8-7-5-----|----7-5---5h-7p-5--------------------|
------------------------------8-7-|--0-----7---------7-6--0-3-0-5-0-6-0-|
----------------------------------|-------------------------------------|


          |--3--|        |--3--|                    |--3--|                     
  S S S S S  S  S S E  S S  S  S S S S S    S S S S S  S  S S E  S S S S S S S  
-----------------------------------------|-------------------------------------|
------------------7-6--------------------|-------------------------------------|
----7-5---5h-7p-5------8-7h-8p-7-5-7-----|----7-5---5h-7p-5--------------------|
--L-----7----------------------------6-0-|--------7---------7-6--0-3-0-5-0-6-0-|
-----------------------------------------|-------------------------------------|


          |--3--|        |--3--|                 
  S S S S S  S  S S E  S S  S  S    S Q    E  S  
---------------------------------|--------------|
------------------7-6------------|--------------|
----7-5---5h-7p-5------8-7h-8p-7-|--5-----------|
--L-----7------------------------|------------0-|
---------------------------------|--------------|


  S S S S S S S S S S S S S E  S    S S S S S  S S  S S S  S  S S  S  S S  
---------------------------------|----------------------------------------|
---------------------------------|------------------------------9-12-11---|
------2-3-------------2-3---6--7-|--L---2-3-------------8-11-10-----------|
----3-----5-0---0---4-----5------|----3-----5s-3-7-10-9-----------------0-|
---------------------------------|----------------------------------------|


  S S S S S S S S S S S S S E  S    S S S S S  S S  S S S  S  S S  S  S S  
---------------------------------|----------------------------------------|
---------------------------------|------------------------------9-12-11---|
------2-3-------------2-3---6--7-|--L---2-3-------------8-11-10-----------|
----3-----5-0---0---4-----5------|----3-----5s-3-7-10-9-----------------0-|
---------------------------------|----------------------------------------|


  S S S S S S S S S S S S S S S S    S S S S S S  S E  S E  S E  S  
----------------------------------|--------------------------------|
--------------------------0-2-4-2-|--L-----------------------------|
------2-3-------------1-3---------|------2-3-2---------------------|
----3-----5-0---0---4-------------|----3-------5s-3--------------0-|
----------------------------------|-----------------3----3----3----|


  S S S S S S S S S S S S S E  S    S S S S S  S S  S S S  S  S S  S  S S  
---------------------------------|----------------------------------------|
---------------------------------|------------------------------9-12-11-9-|
------2-3-------------2-3---6--7-|--L---2-3-------------8-11-10-----------|
----3-----5-0---0---4-----5------|----3-----5s-3-7-10-9-------------------|
---------------------------------|----------------------------------------|


  S H        Q    E  S    S H        Q    E  S  
-----------------------|-----------------------|
-----------------------|-----------------------|
-----------------------|-----------------------|
--0--------------------|--0--------------------|
-----------------------|-----------------------|


                                                             |--3--| |--3--|  
  S S S S S S S S S S S S S S S S    S S S S S S S S S S S S S  S  S S  S  S  
----------------------------------|------------------------------------------|
----------------------------------|--------------------------5h-7h-8-8p-7p-5-|
------1---2---------------3-2-1---|------1---2-------------------------------|
--0-0---0---0-0-0-0-0-0-0-------3-|--0-0---0---0-0-0-0-0-0-0-----------------|
----------------------------------|------------------------------------------|


                                                             |--3--| |--3--|  
  S S S S S S S S S S S S S S S S    S S S S S S S S S S S S S  S  S S  S  S  
----------------------------------|------------------------------------------|
----------------------------------|--------------------------5h-7h-8-8p-7p-5-|
------1---2---------------3-2-1---|------1---2-------------------------------|
--0-0---0---0-0-0-0-0-0-0-------3-|--0-0---0---0-0-0-0-0-0-0-----------------|
----------------------------------|------------------------------------------|


  E.  E.  E     E.  E.  E.  E.  S S    E.  E.  E.  E.  S S E   
-------------|----------------------|-------------------------|
-------------|----------------------|-------------------------|
-------------|----------------------|-------------------------|
--0---0---L--|--0---0---0---0---0-0-|--0---0---0---0---0-0-0--|
-------------|----------------------|-------------------------|


  E.  E.  E.  E.  S S S    E.  E.  E.  E  S S S E   
------------------------|--------------------------|
------------------------|--------------------------|
------------------------|--------------------------|
--0---0---0---0---0-0-0-|--0---0---0---0--0-0-0-0--|
------------------------|--------------------------|


  S S S S S S S S S S S S S S S S    S S S S S S S S S S S S S S S S   
----------------------------------|-----------------------------------|
------8---9-----8---9---4---5-----|------8---9---6---7-----------5----|
--------7---------7-------3---4---|--------7-------5---6-------4---4s-|
--0-0-------0-0-------0---------3-|--0-0-------0---------5-3-6--------|
----------------------------------|-----------------------------------|


  S S S S S S S S S S S S S S S    S S S S S S S S S S S  S S  S S  S  
--------------------------------|-------------------------------------|
----8---9---8---9-----4---5-----|------8---9---6---7------------------|
--6---7-------7---------3---4---|--------7-------5---6----------------|
----------0-------0-0---------3-|--0-0-------0---------5p-3-3p-0-5h-6-|
--------------------------------|-------------------------------------|


  S S S S S S S S S S S S S S S S    S S S S S S S S S S S S S S S S   
----------------------------------|-----------------------------------|
------8---9-----8---9---4---5-----|------8---9---6---7-----------5----|
--------7---------7-------3---4---|--------7-------5---6-------4---4s-|
--0-0-------0-0-------0---------3-|--0-0-------0---------5-3-6--------|
----------------------------------|-----------------------------------|


  S S S S S S S S S S S S S S S    S S S S S S S S S S S  S S  S S  S  
--------------------------------|-------------------------------------|
----8---9---8---9-----4---5-----|------8---9---6---7------------------|
--6---7-------7---------3---4---|--------7-------5---6----------------|
----------0-------0-0---------3-|--0-0-------0---------5p-3-3p-0-5h-6-|
--------------------------------|-------------------------------------|


  Q     Q    S S S E  S S S    Q     Q    S S S S S S S S  
----------------------------|-----------------------------|
----------------------------|-----------------------------|
-------------------5--------|-----------------------------|
--3b----0----5-6-7----7-6-5-|--3b----0----0-0-0-0---0-0-0-|
----------------------------|-----------------------------|


  Q     Q    S S S E  S S S    Q     Q    S S S S S S S S  
----------------------------|-----------------------------|
----------------------------|-----------------------------|
-------------------5--------|-----------------------------|
--3b----0----5-6-7----7-6-5-|--3b----0----0-0-0-0---0-0-0-|
----------------------------|-----------------------------|


          |--3--|                               |--3--|        |--3--|          
  S S S S S  S  S S E  S S S S S S S    S S S S S  S  S S E  S S  S  S S S S S  
-------------------------------------|-----------------------------------------|
-------------------------------------|------------------7-6--------------------|
----7-5---5h-7p-5--------------------|----7-5---5h-7p-5------8-7h-8p-7-5-7-----|
--0-----7---------7-6--0-3-0-5-0-6-0-|--L-----7----------------------------6-0-|
-------------------------------------|-----------------------------------------|


          |--3--|                               |--3--|        |--3--|          
  S S S S S  S  S S E  S S S S S S S    S S S S S  S  S S E  S S  S  S S S S S  
-------------------------------------|-----------------------------------------|
-------------------------------------|------------------7-6--------------------|
----7-5---5h-7p-5--------------------|----7-5---5h-7p-5------8-7h-8p-7-5-7-----|
--L-----7---------7-6--0-3-0-5-0-6-0-|--L-----7----------------------------6-0-|
-------------------------------------|-----------------------------------------|


  S S S S S S S S S S S S S S S S    S S S S S S S S S S S S S S S S  
----------------------------------|----------------------------------|
----------------------------------|----------------------------------|
----------------------------------|----------------------------------|
--L-0-0-0-0-0-0-0-0-0-0-0-0-0-0-0-|--0-0-0-0-0-0-0-5-0-3-0-2-0-------|
----------------------------------|----------------------------3-3-5-|


  S S S S S S S S S S S S S S S S    S S S S S S S S S S S S S S S S  
----------------------------------|----------------------------------|
----------------------------------|----------------------------------|
----------------------------------|----------------------------------|
--5-5-5-5-5-5-5-5-5-5-5-5-5-5-5-5-|--1-1-1-1-1-1-1-1-3-3-3-3-3-3-3-3-|
----------------------------------|----------------------------------|


  S S S S S S S S S S S S S S S S    S S S S S S S S S S S S S S S S  
----------------------------------|----------------------------------|
----------------------------------|----------------------------------|
----------------------------------|----------------------------------|
--0-0-0-0-0-0-0-0-0-0-0-0-0-0-0-0-|--0-0-0-0-0-0-0-5-0-3-0-2-0-0-0-2-|
----------------------------------|----------------------------------|


  S S S S S S S S S S S S S S S S    S S S S S S S S S S S S S S S S  
----------------------------------|----------------------------------|
----------------------------------|----------------------------------|
----------------------------------|----------------------------------|
--5-5-5-5-5-5-5-5-5-5-5-5-5-5-5-5-|--1-1-1-1-1-1-1-1-3-3-3-3-3-3-3-3-|
----------------------------------|----------------------------------|


  E  S E  Q    E  S E  E     E  S E  Q    E  S E  E   
--------------------------|--------------------------|
--------------------------|--------------------------|
--5----3------------------|--------------------------|
---------------3----6-----|--5----1-------0----3-----|
--------------------------|--------------------------|


  S S S S S S S S S S E  S S S S S S S S    S S S S S S S S S S S S S E  S  
-----------------------------------------|---------------------------------|
-----------------------------------------|---------------------------------|
--5-5---3-3------------------------------|------2-3-------------2-3---6--7-|
--------------3-3-6-6------5-5---0-0-0-0-|----3-----5-0---0---4-----5------|
-----------------------------------------|---------------------------------|


  S S S S S  S S  S S S  S  S S  S  S S    S S S S S S S S S S S S S E  S  
----------------------------------------|---------------------------------|
------------------------------9-12-11---|---------------------------------|
--L---2-3-------------8-11-10-----------|------2-3-------------2-3---6--7-|
----3-----5s-3-7-10-9-----------------0-|----3-----5-0---0---4-----5------|
----------------------------------------|---------------------------------|


  S S S S S  S S  S S S  S  S S  S  S S    S S S S S S S S S S S S S S S S  
----------------------------------------|----------------------------------|
------------------------------9-12-11---|--------------------------0-2-4-2-|
--L---2-3-------------8-11-10-----------|------2-3-------------1-3---------|
----3-----5s-3-7-10-9-----------------0-|----3-----5-0---0---4-------------|
----------------------------------------|----------------------------------|


  S S S S S  S S  S S S  S S S  S  S S    S S S S S S S S S S S S S E  S  
---------------------------------------|---------------------------------|
--L--------------------------8-12-10---|---------------------------------|
------2-3-------------7-11-9-----------|------2-3-------------2-3---6--7-|
----3-----5s-3-7-10-8----------------0-|----3-----5-0---0---4-----5------|
---------------------------------------|---------------------------------|


  S S S S S  S S  S S S  S  S S  S  S S     S  S S  S  S  S  S  S Q     
----------------------------------------|----------------10-13-11------|
------------------------------9-12-11---|--------9-12-11---------------|
--L---2-3-------------8-11-10---------8-|--11-10-----------------------|
----3-----5s-3-7-10-9-------------------|------------------------------|
----------------------------------------|------------------------------|


       T         T         T       T         T         T   
   S   S  S  S   S   S  S  S   S   S  S  S   S   S  S  S   
------------11h-12p-11------------------11h-14p-11--------|
---------12------------12------------12------------12-----|
--10h-14------------------14p-10h-14------------------14p-|
----------------------------------------------------------|
----------------------------------------------------------|


       T         T         T       T         T         T   
   S   S  S  S   S   S  S  S   S   S  S  S   S   S  S  S   
------------11h-14p-11------------------11h-14p-11--------|
---------12------------12------------12------------12-----|
--10h-14------------------14p-10h-14------------------14p-|
----------------------------------------------------------|
----------------------------------------------------------|


       T         T         T       T         T         T   
   S   S  S  S   S   S  S  S   S   S  S  S   S   S  S  S   
------------14h-15p-14------------------14h-15p-14--------|
---------15------------15------------15------------15-----|
--13h-17------------------17p-13h-17------------------17h-|
----------------------------------------------------------|
----------------------------------------------------------|


       T         T                 T         T         T   
   S   S  S  S   S   S  S  S   S   S  S  S   S   S  S  S   
------------17h-19p-17------------------14h-15p-14--------|
---------19------------19------------15------------15-----|
--17h-20------------------20p-13h-17------------------17p-|
----------------------------------------------------------|
----------------------------------------------------------|


       T         T         T       T         T         T   
   S   S  S  S   S   S  S  S   S   S  S  S   S   S  S  S   
------------11h-12p-11------------------11h-14p-11--------|
---------12------------12------------12------------12-----|
--10h-14------------------14p-10h-14------------------14p-|
----------------------------------------------------------|
----------------------------------------------------------|


       T         T         T       T         T         T  
   S   S  S  S   S   S  S  S   S   S  S  S   S   S  S  S  
------------11h-14p-11------------------11h-14p-11-------|
---------12------------12------------12------------12----|
--10h-14------------------14p-10h-14------------------14-|
---------------------------------------------------------|
---------------------------------------------------------|


       T         T         T       T         T         T   
   S   S  S  S   S   S  S  S   S   S  S  S   S   S  S  S   
------------14h-15p-14------------------14h-15p-14--------|
---------15------------15------------15------------15-----|
--13h-17------------------17p-13h-17------------------17h-|
----------------------------------------------------------|
----------------------------------------------------------|


       T         T                 T         T         T  
   S   S  S  S   S   S  S  S   S   S  S  S   S   S  S  S  
------------17h-19p-17------------------14h-15p-14-------|
---------19------------19------------15------------15----|
--17h-20------------------20p-13h-17------------------17-|
---------------------------------------------------------|
---------------------------------------------------------|


      T        T        T      T        T        T   
  S   S  S S   S  S  S  S  S   S  S S   S  S  S  S   
----------------------------------------------------|
-----------9h-11p-9-----------------9h-11p-9--------|
--------11----------11-----------11----------11-----|
--9h-12----------------12p-9h-12----------------12p-|
----------------------------------------------------|


      T        T        T      T        T        T   
  S   S  S S   S  S  S  S  S   S  S S   S  S  S  S   
----------------------------------------------------|
-----------9h-11p-9-----------------9h-11p-9--------|
--------11----------11-----------11----------11-----|
--9h-12----------------12p-9h-12----------------12p-|
----------------------------------------------------|


     T      T      T     T      T      T   
  S  S S S  S  S S S  S  S S S  S  S S S   
------------------------------------------|
---------6h-7p-6-------------6h-7p-6------|
-------7---------7---------7---------7----|
--5h-9-------------9p-5h-9-------------9p-|
------------------------------------------|


     T      T      T     T      T      T   
  S  S S S  S  S S S  S  S S S  S  S S S   
------------------------------------------|
---------6h-7p-6-------------6h-7p-6------|
-------7---------7---------7---------7----|
--5h-9-------------9p-5h-9-------------9h-|
------------------------------------------|


      T        T        T      T        T        T   
  S   S  S S   S  S  S  S  S   S  S S   S  S  S  S   
----------------------------------------------------|
-----------9h-11p-9-----------------9h-11p-9--------|
--------11----------11-----------11----------11-----|
--9h-12----------------12p-9h-12----------------12p-|
----------------------------------------------------|


      T        T        T      T        T        T   
  S   S  S S   S  S  S  S  S   S  S S   S  S  S  S   
----------------------------------------------------|
-----------9h-11p-9-----------------9h-11p-9--------|
--------11----------11-----------11----------11-----|
--9h-12----------------12p-9h-12----------------12p-|
----------------------------------------------------|


     T      T      T     T      T      T   
  S  S S S  S  S S S  S  S S S  S  S S S   
------------------------------------------|
---------6h-7p-6-------------6h-7p-6------|
-------7---------7---------7---------7----|
--5h-9-------------9p-5h-9-------------9p-|
------------------------------------------|


      T        T        T      T        T        T  
  S   S  S S   S  S  S  S  S   S  S S   S  S  S  S  
---------------------------------------------------|
-----------8h-10p-8-----------------8h-10p-8-------|
--------10----------10-----------10----------10----|
--8h-11----------------11p-8h-11----------------11-|
---------------------------------------------------|


      T      T        T      T     T      T     
  S   S  S   S E  S   S  S   S E   S   S  S  S  
-----------------------------------------------|
----------------------------------14p-11-------|
--------11h-16----------11h-16-----------11p-7-|
--9h-12-----------9h-12------------------------|
-----------------------------------------------|


      T      T     T          T         T      T     
  S   S  S   S E   S  S   S   S   S  S  S   S  S  S  
------------------13p-9h-12h-13p-12p-9--------------|
----------------------------------------------------|
--------11h-16-------------------------16p-11-------|
--9h-12---------------------------------------12p-9-|
----------------------------------------------------|


       T      T            T      T           
   |---3--|            |---3--|               
   S   S  S   E    E   S   S  S   E  Q    E   
---------------------------------------------|
-----------------------------16h-19----------|
---------12h-18p--12--12h-18-----------------|
--11h-14-------------------------------------|
---------------------------------------------|


       T      T            T      T         T      T      
   |---3--|            |---3--|                           
   S   S  S   E    E   S   S  S   E    E    S   S  S   S  
---------------------------------------------------------|
-----------------------------16h-19p--16h--19p-16--------|
---------12h-18p--12--12h-18----------------------18p-12-|
--11h-14-------------------------------------------------|
---------------------------------------------------------|


      T      T        T      T     T      T     
  S   S  S   S E  S   S  S   S E   S   S  S  S  
-----------------------------------------------|
----------------------------------14p-11-------|
--------11h-16----------11h-16-----------11p-7-|
--9h-12-----------9h-12------------------------|
-----------------------------------------------|


      T      T     T          T         T      T     
  S   S  S   S E   S  S   S   S   S  S  S   S  S  S  
------------------13p-9h-12h-13p-12p-9--------------|
----------------------------------------------------|
--------11h-16-------------------------16p-11-------|
--9h-12---------------------------------------12p-9-|
----------------------------------------------------|


       T      T            T      T           
   |---3--|            |---3--|               
   S   S  S   E    E   S   S  S   E  Q    E   
---------------------------------------------|
-----------------------------16h-19----------|
---------12h-18p--12--12h-18-----------------|
--11h-14-------------------------------------|
---------------------------------------------|


       T      T            T      T         T      T                  
   |---3--|            |---3--|                                       
   S   S  S   E    E   S   S  S   E    E    S   S  S   S    H         
---------------------------------------------------------|-----------|
-----------------------------16h-19p--16h--19p-16--------|-----------|
---------12h-18p--12--12h-18----------------------18p-12-|-----------|
--11h-14-------------------------------------------------|-----------|
---------------------------------------------------------|-----------|


  S S S S S S S S S S S S S S S S    S S S S S S S S S S S S S S S S  
----------------------------------|----------------------------------|
----------------------------------|----------------------------------|
----------------------------------|----------------------------------|
--0-0-0-0-0-0-0-0-0-0-0-0-0-0-0-0-|--0-0-0-0-0-0-0-0-0-0-0-0-0-0-0-0-|
----------------------------------|----------------------------------|


   S  S  S  S  S  S  S  S  S  S  S  S  S  S  S  S  
--------------------------------------------------|
--------------------------------------------------|
--16-16-16-16-16-16-16-16-16-16-16-16-16-16-16-16-|
--------------------------------------------------|
--------------------------------------------------|


   S  S  S  S  S  S  S  S  S  S  S  S  S  S  S  S  
--------------------------------------------------|
--------------------------------------------------|
--16-16-16-16-16-16-16-16-16-16-16-16-16-16-16-16-|
--------------------------------------------------|
--------------------------------------------------|


   S  S  S  S  S  S  S  S  S  S  S  S  S  S  S  S  
--------------------------------------------------|
--------------------------------------------------|
--14-14-14-14-14-14-14-14-14-14-14-14-14-14-14-14-|
--------------------------------------------------|
--------------------------------------------------|


   S  S  S  S  S  S  S  S  S  S  S  S  S  S  S  S  
--------------------------------------------------|
--------------------------------------------------|
--14-14-14-14-14-14-14-14-14-14-14-14-14-14-14-14-|
--------------------------------------------------|
--------------------------------------------------|


   S  S  S  S  S  S  S  S  S  S  S  S  S  S  S  S  
--------------------------------------------------|
--------------------------------------------------|
--12-12-12-12-12-12-12-12-12-12-12-12-12-12-12-12-|
--------------------------------------------------|
--------------------------------------------------|


   S  S  S  S  S  S  S  S  S  S  S  S  S  S  S  S    W                 
--------------------------------------------------|-------------------|
--------------------------------------------------|-------------------|
--15-15-15-15-15-15-15-15-15-15-15-15-15-15-15-15-|-------------------|
--------------------------------------------------|--0----------------|
--------------------------------------------------|-------------------|


  H.              W                   H        H         
---------------|-------------------|--------------------|
---------------|-------------------|--------------------|
---------------|-------------------|--------------------|
--L------------|--L----------------|--L--------4--------|
---------------|-------------------|--------------------|


  E  E  E  E  E  E  E  E     E  E  E  E  Q       E  E  E  E  E  E  E  E   
--------------------------|-------------------|--------------------------|
--------------------------|-------------------|--------------------------|
--------------------------|-------------------|--------------------------|
--------------------------|-----------5--4----|--------------------------|
--5--6-----5--6--3--5--6--|-----5--6----------|--5--6-----5--6--3--5--6--|


  E  E  E  E  H           S S S S S S S S S S S S S S S S  
-----------------------|----------------------------------|
-----------------------|----------------------------------|
-----------------------|----------------------------------|
-----------5--4--------|--0-0-0-0-0-0-0-0-0-0-0-0-0-0-0-0-|
-----5--6--------------|----------------------------------|


  S S S S S S S S S S S S Q       S S S S S S S S S S S S S S S S  
-------------------------------|----------------------------------|
-------------------------------|----------------------------------|
------------------------8------|----------------------------------|
--0-0-0-0-0-0-0-0-0-0-7---6----|--0-0-0-0-0-0-0-0-0-0-0-0-0-0-0-0-|
-------------------------------|----------------------------------|


  S S S S S S S S S S S S Q        S  S  S S S S  S  S  S S S S  S  S  S  S  
-------------------------------|--------------------------------------------|
-------------------------------|--------------------------------------------|
------------------------8------|--------------------------------------------|
--0-0-0-0-0-0-0-0-0-0-7---6----|--12-13-12-0-7-0-12-13-12-0-0-0-15-14-13-12-|
-------------------------------|--------------------------------------------|


   S  S  S S S S  S  S  S S S S Q     
-------------------------------------|
-------------------------------------|
------------------------------8------|
--12-13-12-0-7-0-12-13-12-0-7---6----|
-------------------------------------|


   S  S  S S S S  S  S  S S S S  S  S  S  S     S  S  S S Q    S S S S S S S S  
--------------------------------------------|----------------------------------|
--------------------------------------------|------------------6-7-9-7-6-------|
--------------------------------------------|----------------------------8-7-5-|
--12-13-12-0-7-0-12-13-12-0-0-0-15-14-13-12-|--12-13-12-0----------------------|
--------------------------------------------|----------------------------------|


  S S S S S S S S S S S S S S S S    S S S S S S S S S S S S S S S S  
----------------------------------|----------------------------------|
----------------------------------|------------------6-7-9-7-6-------|
--7-----5---7---8---7-------------|--7-----5---7---------------8-7-5-|
----0-0---0---0---0---0-3-5-6-5-3-|----0-0---0---0-0-----------------|
----------------------------------|----------------------------------|


          |--3--|                     
  S S S S S  S  S S E  S S S S S S S  
-------------------------------------|
-------------------------------------|
----7-5---5h-7p-5--------------------|
--0-----7---------7-6--0-3-0-5-0-6-0-|
-------------------------------------|


  S  S S S  S  S S  S  S S  S  S S  S  S  S     S  S E   S  S S S H         
-----------------------------------------10-|--13-12-----------------------|
-----------------9-12-11---------9-12-11----|------------------------------|
---------8-11-10---------8-11-10------------|-----------13-11-8------------|
--7-10-9------------------------------------|------------------------------|
--------------------------------------------|-------------------8----------|


  W                  
-------------------||
-------------------||
-------------------||
-------------------||
-------------------||




Duration Legend
---------------
W - whole
H - half
Q - quarter
E - 8th
S - 16th
T - 32nd
X - 64th
. - note dotted
|-n-|  - n-tuplets


Tablature Legend
----------------
L - tied note
x - dead note
g - grace note
(n) - ghost note
> - accentuded note
NH - natural harmonic
AH - artificial harmonic
TH - tapped harmonic
SH - semi harmonic
PH - pitch harmonic
h - hammer on
p - pull off
b - bend
br - bendRelease
pb - preBend
pbr - preBendRelease
brb - bendReleaseBend
\n/ - tremolo bar dip
\n - tremolo bar dive
-/n - tremolo bar Release up
/n\ - tremolo bar inverted dip
/n - tremolo bar return
-\n - tremolo bar Release down
S - shift slide
s - legato slide
/ -  slide into from below or out of upwards
\ -  slide into from above or out of downwards
~ - vibrato
W - wide vibrato
tr - trill
TP - tremolo picking
T - tapping
S - slap
P - pop
< - fade in
^ - brush up
v - brush down
comments
We did not receive enough feedback on this tab! Please rate:
print report bad tab
1 2 3 4 5
I want to post or [tab]
guest
You may want to rate the tab now too:
select rating
Please do not post tabs as comments. Select "correction" instead!