Oops, an error
Loading. Please wait.

The Dissentience Tab

ver1
ver1

Intro

Whole song

Interactive

More versions @911Tabs.com
6,465 views 1 this week
no commentswrite comment
1 2 3 4 5
excellent!
x 2
Autoscroll
+/-
esc
set tempo
stop
Contributor
Difficulty
intermediate
WARNING: You are trying to view
                                    content from Ultimate-Guitar.com
                                    in an unauthorized application,
                                    which is prohibited.

                                    Please use an official Ultimate
                                    Guitar Tabs application for iPhone,
                                    iPad or Android to access legitimate
                                    chords, guitar, bass, and drum tabs
                                    from Ultimate-Guitar.com database.

                                    Type "ultimate guitar tabs" in Apple
                                    App Store's or Android Market's
                                    search to find the application.
I was asked to tab this out in regular tablature, tune down to Eb. I tried my best to 
it as accurate as possible but I'm sure there are mistakes.

Guitar 1(Luke?)

      E  E  E  E  E  E  E  E
D#||--------------------------|
A#||--------------------------|
F#||--------------------------|
C#||--6--7--9--7--6-----------|
G#||-----------------8--7--5--|
D#||--------------------------|


  E  E  E  E  E  E  E  E
--------------------------|
--------------------------|
--------------------------|
--------------------------|
--7--------5-----7-----8--|
-----0--0-----0-----0-----|


  E  E  E  E  E  E  E  E
--------------------------|
--------------------------|
--------------------------|
--------------------------|
-----7--------------------|
--0-----0--3--5--6--5--3--|


  E  E  E  E  E  E  E  E
--------------------------|
--------------------------|
--------------------------|
--------------------------|
--7--------5-----7--------|
-----0--0-----0-----0--0--|


  E  E  E  E  E  E  E  E
--------------------------|
--------------------------|
--------------------------|
--6--7--9--7--6-----------|
-----------------8--7--5--|
--------------------------|


  E  E  E  E  E  E  E  E
--------------------------|
--------------------------|
--------------------------|
--------------------------|
--7--------5-----7-----8--|
-----0--0-----0-----0-----|


  E  E  E  E  E  E  E  E
--------------------------|
--------------------------|
--------------------------|
--------------------------|
-----7--------------------|
--0-----0--3--5--6--5--3--|


              |--3--|
  E  E  E  E  E  E  E  E  E
------------------------------|
------------------------------|
------------------------------|
------------------------------|
-----7--5-----5--7--5---------|
--0--------7-----------6--5~--|


  E   E  E  E  E  E  E  E
---------------------------|
---------------------------|
---------------------------|
---------------------5-----|
---------------------------|
--L~--0--3--0--5--6-----0--|


  E  E  E  E  E  E  E  E
--------------------------|
--------------------------|
--------------------------|
--------------------------|
--7--------5-----7-----8--|
-----0--0-----0-----0-----|


  E  E  E  E  E  E  E  E
--------------------------|
--------------------------|
--------------------------|
--------------------------|
-----7--------------------|
--0-----0--3--5--6--5--3--|


  E  E  E  E  E  E  E  E
--------------------------|
--------------------------|
--------------------------|
--------------------------|
--7--------5-----7--------|
-----0--0-----0-----0--0--|


  E  E  E  E  E  E  E  E
--------------------------|
--------------------------|
--------------------------|
--6--7--9--7--6-----------|
-----------------8--7--5--|
--------------------------|


  E  E  E  E  E  E  E  E
--------------------------|
--------------------------|
--------------------------|
--------------------------|
--7--------5-----7-----8--|
-----0--0-----0-----0-----|


  E  E  E  E  E  E  E  E
--------------------------|
--------------------------|
--------------------------|
--------------------------|
-----7--------------------|
--0-----0--3--5--6--5--3--|


  E  E  E  E  E  E  E  E
--------------------------|
--------------------------|
--------------------------|
--6--7--9--7--6-----------|
-----------------8--7--5--|
--------------------------|


  E  E  E  E  E  E  E  E
--------------------------|
--------------------------|
--------------------------|
--------6-----------------|
--7--8-----8--7--5--------|
--------------------8--7--|


                |--3--|
    E  E  E  E  E  E  E  E  E
|-------------------------------|
|-------------------------------|
|*------------------------------|
|*------------------------------|
|------7--5-----5--7--5---------|
|---0--------7-----------6--5~--|


  E   E  E  E  E  E  E  E
---------------------------|
---------------------------|
---------------------------|
---------------------------|
---------------------------|
---~--0--3--0--5--0--6--0--|


              |--3--|
  E  E  E  E  E  E  E  E  E
-----------------------------|
-----------------------------|
-----------------------------|
-----------------------7--6--|
-----7--5-----5--7--5--------|
-----------7-----------------|


        |--3--|
  E  E  E  E  E  E  E  E  E
-----------------------------|
-----------------------------|
-----------------------------|
-----------------------------|
-----8--7--8--7--5--7--------|
-----------------------6--0--|


              |--3--|
  E  E  E  E  E  E  E  E  E
------------------------------|
------------------------------|
------------------------------|
------------------------------|
-----7--5-----5--7--5---------|
-----------7-----------6--5~--|


  E   E  E  E  E  E  E  E
---------------------------|
---------------------------|
---------------------------|
---------------------------|
---------------------------|
---~--0--3--0--5--0--6--0--|


              |--3--|
  E  E  E  E  E  E  E  E  E
-----------------------------|
-----------------------------|
-----------------------------|
-----------------------7--6--|
-----7--5-----5--7--5--------|
-----------7-----------------|


        |--3--|
  E  E  E  E  E  E
--------------------||
--------------------||
--------------------||
--------------------||
-----8--7--8--7--5--||
--------------------||



Guitar 2(Tim?)

      E  E  E  E  E  E  E  E
D#||--------------------------|
A#||--------------------------|
F#||--4--5--7--5--4-----------|
C#||-----------------7--6-----|
G#||-----------------------8--|
D#||--------------------------|


  E  E  E  E  E  E  E  E
--------------------------|
--------------------------|
--------------------------|
--6--------------6-----7--|
-----------8--------------|
-----0--0-----0-----0-----|


  E  E  E  E  E  E  E  E
--------------------------|
--------------------------|
--------------------------|
-----6-----5--7--8--7--5--|
--------------------------|
--0-----0-----------------|


  E  E  E  E  E  E  E  E
--------------------------|
--------------------------|
--------------------------|
--6--------------6--------|
-----------8--------------|
-----0--0-----0-----0--0--|


  E  E  E  E  E  E  E  E
--------------------------|
--------------------------|
--4--5--7--5--4-----------|
-----------------7--6-----|
-----------------------8--|
--------------------------|


  E  E  E  E  E  E  E  E
--------------------------|
--------------------------|
--------------------------|
--6--------------6-----7--|
-----------8--------------|
-----0--0-----0-----0-----|


  E  E  E  E  E  E  E  E
--------------------------|
--------------------------|
--------------------------|
-----6-----5--7--8--7--5--|
--------------------------|
--0-----0-----------------|


              |--3--|
  E  E  E  E  E  E  E  E  E
------------------------------|
------------------------------|
------------------------------|
------------------------------|
-----7--5-----5--7--5---------|
--0--------7-----------6--5~--|


  E   E  E  E  E  E  E  E
---------------------------|
---------------------------|
---------------------4-----|
---------------------------|
---------------------------|
--L~--0--3--0--5--0-----0--|


  E  E  E  E  E  E  E  E
--------------------------|
--------------------------|
--------------------------|
--6--------------6-----7--|
-----------8--------------|
-----0--0-----0-----0-----|


  E  E  E  E  E  E  E  E
--------------------------|
--------------------------|
--------------------------|
-----6-----5--7--8--7--5--|
--------------------------|
--0-----0-----------------|


  E  E  E  E  E  E  E  E
--------------------------|
--------------------------|
--------------------------|
--6--------------6--------|
-----------8--------------|
-----0--0-----0-----0--0--|


  E  E  E  E  E  E  E  E
--------------------------|
--------------------------|
--4--5--7--5--4-----------|
-----------------7--6-----|
-----------------------8--|
--------------------------|


  E  E  E  E  E  E  E  E
--------------------------|
--------------------------|
--------------------------|
--6--------------6-----7--|
-----------8--------------|
-----0--0-----0-----0-----|


  E  E  E  E  E  E  E  E
--------------------------|
--------------------------|
--------------------------|
-----6-----5--7--8--7--5--|
--------------------------|
--0-----0-----------------|


  E  E  E  E  E  E  E  E
--------------------------|
--------------------------|
--4--5--7--5--4-----------|
-----------------7--6-----|
-----------------------8--|
--------------------------|


  E  E  E  E  E  E  E  E
--------------------------|
--------------------------|
--------4-----------------|
--6--7-----7--6-----------|
-----------------8--7--5--|
--------------------------|


                |--3--|
    E  E  E  E  E  E  E  E  E
|-------------------------------|
|-------------------------------|
|*------------------------------|
|*------------------------------|
|------7--5-----5--7--5---------|
|---0--------7-----------6--5~--|


  E   E  E  E  E  E  E  E
---------------------------|
---------------------------|
---------------------------|
---------------------------|
---------------------------|
--L~--0--3--0--5--0--6--0--|


              |--3--|
  E  E  E  E  E  E  E  E  E
-----------------------------|
-----------------------------|
-----------------------------|
-----------------------7--6--|
-----7--5-----5--7--5--------|
--L--------7-----------------|


        |--3--|
  E  E  E  E  E  E  E  E  E
-----------------------------|
-----------------------------|
-----------------------------|
--L--------------------------|
-----8--7--8--7--5--7--------|
-----------------------6--0--|


              |--3--|
  E  E  E  E  E  E  E  E  E
------------------------------|
------------------------------|
------------------------------|
------------------------------|
-----7--5-----5--7--5---------|
-----------7-----------6--5~--|


  E   E  E  E  E  E  E  E
---------------------------|
---------------------------|
---------------------------|
---------------------------|
---------------------------|
--L~--0--3--0--5--0--6--0--|


              |--3--|
  E  E  E  E  E  E  E  E  E
-----------------------------|
-----------------------------|
-----------------------------|
-----------------------7--6--|
-----7--5-----5--7--5--------|
--L--------7-----------------|


        |--3--|
  E  E  E  E  E  E
--------------------||
--------------------||
--------------------||
--L-----------------||
-----8--7--8--7--5--||
--------------------||
comments
We did not receive enough feedback on this tab! Please rate:
print report bad tab
1 2 3 4 5
I want to post or [tab]
guest
You may want to rate the tab now too:
select rating
Please do not post tabs as comments. Select "correction" instead!