Oops, an error
Loading. Please wait.

Turn Soonest To The Sea Bass Tab

ver1
ver1

Whole song

Interactive

More versions @911Tabs.com
6,316 views 12 this week
5 commentsread comments
1 2 3 4 5
excellent!
x 4
Autoscroll
+/-
esc
set tempo
stop
Contributor
Hey! There's an official Ultimate Guitar app which is ideal
for learning songs when you're away from computer. Get the app
WARNING: You are trying to view
                                    content from Ultimate-Guitar.com
                                    in an unauthorized application,
                                    which is prohibited.

                                    Please use an official Ultimate
                                    Guitar Tabs application for iPhone,
                                    iPad or Android to access legitimate
                                    chords, guitar, bass, and drum tabs
                                    from Ultimate-Guitar.com database.

                                    Type "ultimate guitar tabs" in Apple
                                    App Store's or Android Market's
                                    search to find the application.
From the album Kezia.
Transcribed by Tom Delonge II.

Bass(D# G# C# F#)


Q=210
4/4

   |---3---|  |----3---|  |----3---|  |----3----|   
   E   E   E  E   E    E  E   E    E  E    E    E   
|--------------------------------------------------|
|--------------------------------------------------|
|-------------------------0h--7h--10--0h--10h--14--|
|--0h--5h--8--0h--8h--12---------------------------|


                              |--3--|  |--3--|  |---3---|   |---3--|   
  S S S  E  S S S Q   Q       E  E  E  E  E  E   E  E  E    E  E  E   
|--------------------------|------------------------------------------|
|--------------------5\----|------------------------------------------|
|--------------------------|---------------------0h-7h-10--0h-10h-14--|
|--0-0-0----0-0-0----------|--0h-5h-8--0h-8h-12-----------------------|


                       |---3---|  |----3---|  |----3---|  |----3----|   
   W                   E   E   E  E   E    E  E   E    E  E    E    E   
|-------------------|--------------------------------------------------|
|-------------------|--------------------------------------------------|
|-------------------|-------------------------0h--7h--10--0h--10h--14--|
|-------------------|--0h--5h--8--0h--8h--12---------------------------|


                              |--3--|  |--3--|  |---3---|   |---3--|   
  S S S  E  S S S Q   Q       E  E  E  E  E  E   E  E  E    E  E  E   
|--------------------------|------------------------------------------|
|--------------------5\----|------------------------------------------|
|--------------------------|---------------------0h-7h-10--0h-10h-14--|
|--0-0-0----0-0-0----------|--0h-5h-8--0h-8h-12-----------------------|


                       Q=206
   Q    Q    Q    Q       Q    H        Q       S S E  E  S S E  E  E  E   
|----------------------|---------------------|----------------------------|
|----------------------|---------------------|----------------------------|
|--7----0----3----7----|--7------------------|----------------------------|
|----------------------|---------------------|--0-0-0-----0-0-0-----0--0--|


                |---3---|                                    
   E  S S E  E  E   E   E  Q       E  E  Q    E   E  E   E   
|---------------4h--5p--4-------|---------------------------|
|--------------------------5----|-------------5p--4---------|
|-------------------------------|--3--3--3-----------5p--2--|
|-----0-0-0---------------------|---------------------------|


   E  E  Q    E   E  Q       S S E  E  S S E  E  E  E   
|-------------5p--4-------|----------------------------|
|--------------------5----|----------------------------|
|--5--5--5----------------|----------------------------|
|-------------------------|--0-0-0-----0-0-0-----0--0--|


                |---3---|                                    
   E  S S E  E  E   E   E  Q       E  E  Q    E   E  E   E   
|---------------4h--5p--4-------|---------------------------|
|--------------------------5----|-------------5p--4---------|
|-------------------------------|--3--3--3-----------5p--2--|
|-----0-0-0---------------------|---------------------------|


   E  E  Q    E   E  Q       E E E E E E E E    E E E E E E E E   
|-------------5p-4--------|------------------|------------------|
|--------------------5----|------------------|------------------|
|--5--5--5----------------|--7-7-7-7-7-7-7-7-|--7-7-7-7-7-7-7-7-|
|-------------------------|------------------|------------------|


  E   E  Q    E   E  E   E     E  E  Q    E   E  Q     
|---------------------------|-------------5p--4-------|
|-------------5p--4---------|--------------------5----|
|--3--3--3-----------5p--2--|--5--5--5----------------|
|---------------------------|-------------------------|


   E  E  E  E  E  E  E  E     E  E  E  E  E  E  E  E   
|--------------------------|--------------------------|
|--------------------------|--------------------------|
|--7--7--7--7--7--7--7--7--|--7--7--7--7--7--7--7--7--|
|--------------------------|--------------------------|


                                                      3/4
   E  E  Q    E   E  E   E     E  E  Q    E   E  Q       S S E E E  E  E   
|---------------------------|-------------5p--4-------|------------------|
|-------------5p--4---------|--------------------5----|------------------|
|--3--3--3-----------5p--2--|--5--5--5----------------|------------------|
|---------------------------|-------------------------|--0-0-0---0-----0-|

Q=228
4/4
   E  E  E  E  E  E  E  E     E  E  E  E  E  E  E  E   
|--------------------------|--------------------------|
|--------------------------|--------------------------|
|--7--7--7--7--7--7--7--7--|--7--7--7--7--7--7--7--7--|
|--------------------------|--------------------------|


  E  E  E  E  E  E  E  E     E  E  E  E  E  E  E  E   
|--------------------------|--------------------------|
|--------------------------|--------------------------|
|--6--6--6--6--6--6--6--6--|--6--6--6--6--6--6--6--6--|
|--------------------------|--------------------------|


  E  E  E  E  E  E  E  E     E  E  E  E  E  E  E  E   
|--------------------------|--------------------------|
|--------------------------|--------------------------|
|--5--5--5--5--5--5--5--5--|--5--5--5--5--5--5--5--5--|
|--------------------------|--------------------------|

 
   E  E  E  E  E  E  E  E     E  E  E  E  E  E  E  E   
|--------------------------|--------------------------|
|--------------------------|--------------------------|
|--4--4--4--4--4--4--4--4--|--4--4--4--4--4--4--4--4--|
|--------------------------|--------------------------|


   E  E  E  E  E  E  E  E     E  E  E  E  E  E  E  E   
|--------------------------|--------------------------|
|--------------------------|--------------------------|
|--3--3--3--3--3--3--3--3--|--3--3--3--3--3--3--3--3--|
|--------------------------|--------------------------|


                                                      3/4
   E  E  E  E  E  E  E  E     E  E  E  E  E  E  E  E     H.            
|--------------------------|--------------------------|---------------|
|--------------------------|--------------------------|---------------|
|--2--2--2--2--2--2--2--2--|--2--2--2--2--2--2--2--2--|---------------|
|--------------------------|--------------------------|--0------------|


4/4
   W                   E  E  E  E  E  E  E  E     E  E  E  E  E  E  E  E   
|-------------------|--------------------------|--------------------------|
|-------------------|--------------------------|--------------------------|
|-------------------|--------------------------|--------------------------|
|--2----------------|--3--3--3--3--3--3--3--3--|-----3--3--3--3--3--3-----|

 
   E  E  E  E  E  E  E  E     S  S +Q.      H          Q.     Q.     Q     
|--------------------------|------------------------|---------------------|
|--------------------------|--7s-9-(9)------10------|---------8-----------|
|--7--7--7--7--7--7--7--7--|------------------------|--6-------------6----|
|--------------------------|------------------------|---------------------|


   E E E E E E E E     E E E E E E E E     E  Q    Q.     E   E   
|-------------------|-------------------|------------------------|
|-------------------|-------------------|--7--9----7------9p--7--|
|--6-6-6-6-6-6-6-6--|--5-5-5-5-5-5-5-5--|------------------------|
|-------------------|-------------------|------------------------|


   Q.      Q.     Q        E  E  E  E  E  E  E  E     E  H        Q    E   
|-----------------------|--------------------------|----------------------|
|--11-------------------|--------------------------|----------------------|
|----------10-----------|--------------------------|----------------------|
|------------------9----|--9--9--9--9--9--9--9--9--|--8-------------------|


   E  Q    E  E  Q    E     E E E E E E E E     E E E E E E E E   
|------------------------|------------------|------------------|
|------------------------|------------------|------------------|
|------------------------|------------------|------------------|
|--8----------8----------|--7-7-7-7-7-7-7-7-|--7-7-7-7-7-7-7-7-|


3/4             4/4
   H.              W                   E  E  E  E  E  E  E  E   
|---------------|-------------------|--------------------------|
|---------------|-------------------|--------------------------|
|---------------|-------------------|--------------------------|
|--0------------|--2----------------|--3--3--3--3--3--3--3--3--|


                      Q=212
   E  E E E E E E E      E  Q    E  Q    E  E     E  E  E  Q    E  Q     
|---------------------|------------------------|------------------------|
|---------------------|------------------------|------------------------|
|---------------------|------------------------|------------------------|
|-----3-3-3-3-3-3-----|--1-------1-------1-----|--0--0--0-------0-------|


   E  E  Q   E  E  E  E     E  E  E  Q   E  Q       E  E  Q   E  E  E  E   
|------------------------|-----------------------|------------------------|
|------------------------|-----------------------|------------------------|
|------------------------|-----------------------|------------------------|
|-----0------0--0--0-----|--0--0--0------0-------|-----0------0--0--0-----|


   E  E  Q    E  E  Q       E  E  E  E  E  E  E  E    H        E  E  E  E   
|------------------------|--------------------------|----------------------|
|------------------------|--------------------------|----------------------|
|------------------------|--------------------------|----------------------|
|-----0----------0-------|--0--0--0--0--0--0--0--0--|----------1--1--1-----|


   E  E  E  Q   E  Q       E  E  Q    E  E  E  E     E  E  E  Q    E  Q     
|-----------------------|-------------------------|------------------------|
|-----------------------|-------------------------|------------------------|
|-----------------------|-------------------------|------------------------|
|--0--0--0------0-------|-----0-------0--0--0-----|--0--0--0-------0-------|


   E  E  Q   E  E  E  E     E  E  Q   E  E  Q       E  E  E  E  E  E  E E   
|------------------------|-----------------------|------------------------|
|------------------------|-----------------------|------------------------|
|------------------------|-----------------------|------------------------|
|-----0------0--0--0-----|-----0---------0-------|--0--0--0--0--0--0--0-0-|


                        Q=208
                        12/8
   H        E  E  E  E     E  Q    Q     E  E   E    E   E    Q     
|-----------------------|------------------------------------------|
|-----------------------|-------------------------------12h--14----|
|-----------------------|--7--7----9----10--9--10h--12-------------|
|-----------1--1--1-----|------------------------------------------|


   E  Q    Q     E  E  E    E   E   Q     
|----------------------------------------|
|----------------------------------12----|
|--7--7----9----10--9--9h--10--12--------|
|----------------------------------------|


   Q.      Q     E  E  E    E   E  Q        E  Q    Q    E  Q    Q    Q     
|---------------------------------------|----------------------------------|
|--14------------------------------9----|--12------------------------------|
|----------9----10--9--9h--10--12-------|----------------------------------|
|---------------------------------------|------0----2----3--2----0----0----|


5/4                       3/4             12/8
   E  W                E     H.              Q     Q    Q    H.             
|-------------------------|---------------|--------------------------------|
|-------------------------|---------------|-------10----9------------------|
|-------------------------|---------------|--0---------------7\------------|
|--0----------------------|--0------------|--------------------------------|


   Q    Q    Q    Q    Q    Q       Q       Q    Q    Q    Q     Q     
|--------------------------------|------------------------------------|
|-----------------2--------------|-------7g10----9--------------------|
|-------2--------------2---------|--0-----------------8----7----10----|
|--3---------3--------------3----|------------------------------------|


   Q     Q    Q     Q     Q    Q      Q       Q     Q    Q       Q    Q     
|----------------------------------|---------------------------------------|
|--9----10----9----12----10----9---|-------7g10----12---------7g10----9----|
|----------------------------------|--8------------------8-----------------|
|----------------------------------|---------------------------------------|

 
                                        5/4
   Q       Q    Q    Q       Q     Q       E  W                E   
|---------------------------------------|-------------------------|
|-------7g10----9---------7g10----12----|--7----------------------|
|--7-----------------7------------------|-------------------------|
|---------------------------------------|-------------------------|


3/4             12/8
   H.              Q     Q    Q    H.             
|---------------|--------------------------------|
|---------------|-------10----9------------------|
|--0------------|--0---------------7\------------|
|---------------|--------------------------------|


   Q    Q    Q    Q    Q    Q       Q       Q    Q    Q    Q     Q     
|--------------------------------|------------------------------------|
|-----------------2--------------|-------7g10----9--------------------|
|-------2--------------2---------|--0-----------------8----7----10----|
|--3---------3--------------3----|------------------------------------|


   Q     Q    Q     Q     Q    Q      Q       Q     Q    Q       Q    Q     
|----------------------------------|---------------------------------------|
|--9----10----9----12----10----9---|-------7g10----12---------7g10----9----|
|----------------------------------|--8------------------8-----------------|
|----------------------------------|---------------------------------------|


   Q       Q    Q    Q       Q     Q       H.           H.            
|---------------------------------------|----------------------------|
|-------7g10----9---------7g10----12----|----------------------------|
|--7-----------------7------------------|--0------------2------------|
|---------------------------------------|----------------------------|

 
                                                                Q=192
   H.          H.            H.           H.             W.                
|--------------------------|--------------------------|-------------------|
|--------------------------|--------------------------|-------------------|
|--3-----------5-----------|--7-----------8-----------|--7----------------|
|--------------------------|--------------------------|-------------------|


                     Q=238
4/4                  12/8
   Q.     Q.     Q      E E E E E E E E E E E E    E E E E E E E E E E E E  
|--------------------|--------------------------|--------------------------|
|--------------------|--------------------------|--------------------------|
|--0------2------3---|--5-5-5-5-5-5-5-5-5-5-5-5-|--5-5-5-5-5-5-3-3-3-3-3-3-|
|--------------------|--------------------------|--------------------------|


   E E E E E E E E E E E E    E E E E E E E E E E E E   
|--------------------------|--------------------------|
|--------------------------|--------------------------|
|--------------------------|--------------------------|
|--3-3-3-3-3-3-3-3-3-3-3-3-|--6-6-6-6-6-6-6-6-6-6-6-6-|


   E E E E E E E E E E E E    E E E E E E E E E E E E  
|--------------------------|--------------------------|
|--------------------------|--------------------------|
|--5-5-5-5-5-5-5-5-5-5-5-5-|--5-5-5-5-5-5-3-3-3-3-3-3-|
|--------------------------|--------------------------|


   E E E E E E E E E E E E    E E E E E E E E E E E E   
|--------------------------|--------------------------|
|--------------------------|--------------------------|
|--------------------------|--------------------------|
|--3-3-3-3-3-3-3-3-3-3-3-3-|--6-6-6-6-6-6-6-6-6-6-6-6-|


Q=136                              Q=144
5/4                                4/4
   E  Q    E  S S S S S S S Q    S    Q    E  E  E  E  Q     
|----------------------------------|------------------------|
|----------------------------------|------------------------|
|--5----------0-0-2---2-2-3--------|-------2--------2-------|
|----------------------------------|--0-------3--0-----3----|


9/8                              4/4
   Q    E  E  E  S S S S S S S S    E  E  E  E  E  Q    E   
|--------------------------------|--------------5----------|
|--------------------------------|-----------------4-------|
|-------0--------0-0-2---2-2-3---|-----2--0----------------|
|--0-------3--0------------------|--0--------0----------0--|


  +E  E  E  E  E  E   E  E    E  E  E  E  E  Q    E   
|-----8--5-----------------|-------------------------|
|-----------7--------------|-------------------------|
|--------------9--6--------|-----2--------2----------|
|-(0)-----------------8--5-|--0-----3--0-----3----0--|


                                                      7/8
  +E  E  E E  S S S S S S S S    E  E  E  E  E  Q   E   +E  E  E  E E Q     
|-----------------------------|--------------5--------|-----5-------------|
|-----------------------------|-----------------4-----|--------7--4-------|
|----0--------0-0-2---2-2-3---|-----2-----------------|-------------6-3---|
|-(0)---3--0------------------|--0-----3--0---------0-|-(0)---------------|


4/4                      9/8
  Q    E  E  E  E  Q       Q    E  E  E  S S S S S S S S  
|------------------------|--------------------------------|
|------------------------|--------------------------------|
|-------2--------2-------|-------0--------0-0-2---2-2-3---|
|--0-------3--0-----3----|--0-------3--0------------------|


4/4
   E  E  E  E  E  Q    E    +E  E  E  E  E  E  E  E     E E E E E Q   E   
|--------------5----------|-----8--5-----------------|------------------|
|-----------------4-------|-----------7--------------|------------------|
|-----2--0----------------|--------------9--6--------|----2-----2-------|
|--0--------0----------0--|-(0)----------------8--5--|--0---3-0---3---0-|


  +E  E  E  E  S S S S S S S S    E  E  E  E  E  Q    E   
|------------------------------|--------------5----------|
|------------------------------|-----------------4-------|
|-----0--------0-0-2---2-2-3---|-----2-------------------|
|-(0)-----3--0-----------------|--0-----3--0----------0--|


  +E  E  E  E  E  E   E  E    E  E   E  E  E   E  E  E    W             
|-----8--5-----------------|---------------------------|------------------|
|-----------7--------------|--------10-----------------|------------------|
|--------------9--6--------|--9--6------9--6---------9-|------------------|
|-(0)-----------------8--5-|------------------10--7----|--0---------------|


  +W                    W                   +W                 
|--------------------|--------------------|-------------------|
|--------------------|--------------------|-------------------|
|--------------------|--12----------------|-(12)--------------|
|-(0)----------------|--------------------|-------------------|


   W                   +W                    H         H         
|--------------------|-------------------|--16--------17--------|
|--------------------|-------------------|----------------------|
|--10----------------|-(10)--------------|----------------------|
|--------------------|-------------------|----------------------|


   H          H          +H         H          +W                 
|-(17)--------19------|-(19)--------16------|-(16)--------------|
|---------------------|---------------------|-------------------|
|---------------------|---------------------|-------------------|
|---------------------|---------------------|-------------------|

                                
                                                                 2/4
  S S S S S S S S S S S E.  S S   S S S E  S S S S S S S S S S S  H         
|-------------------------------|--------------------------------|--------|
|-------------------------------|--------------------------------|--------|
|-------------------------------|--------------------------------|--------|
|-0-0-0---0-0-0---0-0-0-----0-0-|---0-0------0-0---0-0---0-0-0---|--------|


4/4
   S S S S S S S S S S S E.  S S    S S S E  S S S S S S S S S S S  
|--------------------------------|---------------------------------|
|--------------------------------|---------------------------------|
|--------------------------------|---------------------------------|
|--0-0-0---0-0-0---0-0-0-----0-0-|----0-0------0-0---0-0---0-0-0---|


   |--3--|  |--3--|                                                   
   E  E  E  E  E  E  S S S E.  S S    S S S E  S S S S S S S S S S S  
|----------------------------------|---------------------------------|
|----------------------------------|---------------------------------|
|----------------------------------|---------------------------------|
|--0--0--0--0--0--0--0-0-0-----0-0-|----0-0------0-0---0-0---0-0-0---|


   S S S S S S S S S S S E.  S S    S S S E  S S S S S S S S S S S  
|--------------------------------|---------------------------------|
|--------------------------------|---------------------------------|
|--------------------------------|---------------------------------|
|--0-0-0---0-0-0---0-0-0-----0-0-|----0-0------0-0---0-0---0-0-0---|


   |--3--|  |--3--|                                                   
   E  E  E  E  E  E  S S S E.  S S    S S S E  S S S S S S S S S S S  
|----------------------------------|---------------------------------|
|----------------------------------|---------------------------------|
|----------------------------------|---------------------------------|
|--0--0--0--0--0--0--0-0-0-----0-0-|----0-0------0-0---0-0---0-0-0---|


Q=210
  |---3---| |--3--|  |---3---| |--3--|                               
   E  E  E  E  E  E  E  E  E   E  E  E       S S S E  S S S Q   Q     
|-----------------------------------------|-------------------------|
|-----------------------------------------|---------------------5---|
|--------------------0h-7h-10--0h-10h-14--|-------------------------|
|--0h-5h-8--0h-8h-12----------------------|--0-0-0----0-0-0---------|


                    Q=200
  +W                   S S E  E  S S E  E  E  E   
|-------------------|----------------------------|
|-(5)---------------|----------------------------|
|-------------------|----------------------------|
|-------------------|--0-0-0-----0-0-0-----0--0--|


                |---3---|                                    
   E  S S E  E  E   E   E  Q       E  E  Q    E   E  E   E   
|---------------4h--5p--4-------|---------------------------|
|--------------------------5----|-------------5p--4---------|
|-------------------------------|--3--3--3-----------5p--2--|
|-----0-0-0---------------------|---------------------------|


   E  E  Q    E   E  Q       S S E  E  S S E  E  E  E   
|-------------5p--4-------|----------------------------|
|--------------------5----|----------------------------|
|--5--5--5----------------|----------------------------|
|-------------------------|--0-0-0-----0-0-0-----0--0--|


                |---3---|                                    
   E  S S E  E  E   E   E  Q       E  E  Q    E   E  E   E   
|---------------4h--5p--4-------|---------------------------|
|--------------------------5----|-------------5p--4---------|
|-------------------------------|--3--3--3-----------5p--2--|
|-----0-0-0---------------------|---------------------------|


                     Q=199
3/4                  7/4
   E  E  Q    E   E     W                H.            
|-------------5p--4--|--------------------------------|
|--------------------|--------------------------------|
|--5--5--5-----------|--------------------------------|
|--------------------|--3----------------2------------|


   W                H.              W                H.            
|--------------------------------|--------------------------------|
|--------------------------------|--------------------------------|
|-------------------5------------|--3----------------4------------|
|--0-----------------------------|--------------------------------|


   W                H.              E  H        Q    E  E  H        E   
|--------------------------------|-------------------------------------|
|--------------------------------|-------------------------------------|
|--5----------------6------------|-------------------------------------|
|--------------------------------|--0-------------------0--------------|


                        Q=159
3/4                     4/4
   Q     E   E   E   E     W                      W                 
|-----------------------|----------------------|--------------------|
|-------11p--9----------|----------------------|--------------------|
|---------------11p--9--|--7s------------------|--11----------------|
|-----------------------|----------------------|--------------------|


  +W                   E   E   Q     E   E   Q       W                 
|-------------------|----------21------------21----|-------------------|
|-------------------|--19--19--------19--19--------|-------------------|
|-(11)--------------|------------------------------|-------------------|
|-------------------|------------------------------|-------------------|


   W                   W                    E   E   Q     E   E   Q     
|-------------------|-------------------|----------16------------16----|
|-------------------|-------------------|--14--14--------14--14--------|
|-------------------|-------------------|------------------------------|
|-------------------|-------------------|------------------------------|


   E  E  E  E  E  E  E  E     E  E  E  E  E  E  E  E   
|--------------------------|--------------------------|
|--------------------------|--------------------------|
|--7--7--7--7--7--7--7--7--|--6--6--6--6--4--4--4--4--|
|--------------------------|--------------------------|


   E  E  E  E  E  E  E  E     E  E  E  E  E  E  E  E   
|--------------------------|--------------------------|
|--------------------------|--------------------------|
|--0--0--0--0--0--0--0--0--|--2--2--2--2--2--2--2--2--|
|--------------------------|--------------------------|


   E  E  E  E  E  E  E  E     E  E  E  E  E  E  E  E   
|--------------------------|--------------------------|
|--------------------------|--------------------------|
|--7--7--7--7--7--7--7--7--|--6--6--6--6--4--4--4--4--|
|--------------------------|--------------------------|


   E E E E E E E E     E  E  E  E  E  Q    E     E  E  E  E  E  E  E  E   
|-------------------|-------------------------|--------------------------|
|-------------------|-------------------------|--------------------------|
|--0-0-0-0-0-0-0-0--|--2--2--2--2--2----------|--7--7--7--7--7--7--7--7--|
|-------------------|-------------------------|--------------------------|


   E  E  E  E  E  E  E  E     E  E  E  E  E  E  E  E   
|--------------------------|--------------------------|
|--------------------------|--------------------------|
|--6--6--6--6--4--4--4--4--|--0--0--0--0--0--0--0--0--|
|--------------------------|--------------------------|


   E  E  E  E  E  E  E  E     E  E  E  E  E  E  E  E   
|--------------------------|--------------------------|
|--------------------------|--------------------------|
|--------------------------|--7--7--7--7--7--7--7--7--|
|--4--4--4--4--7--7--7--7--|--------------------------|


   E  E  E  E  E  E  E  E     E  E  E  E  E  E  E  E   
|--------------------------|--------------------------|
|--------------------------|--------------------------|
|--6--6--6--6--4--4--4--4--|--0--0--0--0--0--0--0--0--|
|--------------------------|--------------------------|


   E  E  E  E  E  E  E  E     E  E  E  E  E  E  E  E   
|--------------------------|--------------------------|
|--------------------------|--------------------------|
|--------------------------|--7--7--7--7--7--7--7--7--|
|--0--0--0--0--7--7--7--7--|--------------------------|


   E  E  E  E  E  E  E  E     E  E  E  E  E  E  E  E   
|--------------------------|--------------------------|
|--------------------------|--------------------------|
|--6--6--6--6--4--4--4--4--|--0--0--0--0--0--0--0--0--|
|--------------------------|--------------------------|


  E  E  E  E  E  E  E  E     E  E  E  E  E  E  E  E   
|--------------------------|--------------------------|
|--------------------------|--------------------------|
|--------------------------|--7--7--7--7--7--7--7--7--|
|--4--4--4--4--7--7--7--7--|--------------------------|


   E E E E E E E E    E  E  E  E  E  E  E  E     E  E  E  E  E  Q    E   
|------------------|--------------------------|-------------------------|
|------------------|--------------------------|-------------------------|
|--6-6-6-6-4-4-4-4-|--0--0--0--0--0--0--0--0--|--2--2--2--2--2----------|
|------------------|--------------------------|-------------------------|


   E  E  E  E  E  E  E  E     E  E  E  E  E  E  E  E   
|--------------------------|--------------------------|
|--5--5--5--5--5--5--5--5--|--4--4--4--4--2--2--2--2--|
|--------------------------|--------------------------|
|--------------------------|--------------------------|


   E E E E E E E E    E  E  E  E    E  E  E  E     Q.      H        E   
|------------------|----------------------------|----------------------|
|------------------|--------------2g5--5--5--5--|--5\------------------|
|--3-3-3-3-3-3-3-3-|--2--2--2--2----------------|----------------------|
|------------------|----------------------------|----------------------|


  W                   W                   W                 
|-------------------|-------------------|-------------------|
|-------------------|-------------------|-------------------|
|-------------------|-------------------|-------------------|
|-------------------|-------------------|-------------------|


   E  E  E  E  E  E  E  E     E  E  E  E  E  E  E  E   
|--------------------------|--------------------------|
|--9-----9-----9-----9-----|--9-----9-----6-----6-----|
|-----7-----7-----7-----7--|-----6-----6-----4-----4--|
|--------------------------|--------------------------|

 
   E  E  E  E  E  E  E  E     E  E  E  E  E  E  E  E   
|--------------------------|--------------------------|
|--------------------------|--------------------------|
|--7-----7-----7-----7-----|--7-----7-----9-----9-----|
|-----5-----5-----5-----5--|-----4-----4-----7-----7--|


   E  E  E  E  E  E  E  E     E  E  E  E  E  E  E  E   
|--------------------------|--------------------------|
|--9-----9-----9-----9-----|--9-----9-----6-----6-----|
|-----7-----7-----7-----7--|-----6-----6-----4-----4--|
|--------------------------|--------------------------|


   E  E  E  E  E  E  E  E     E  E  E  E  E  E  E   E   
|--------------------------|-----------------8--9--11--|
|--------------------------|-----------6--9------------|
|--7-----7-----7-----7-----|--------7------------------|
|-----5-----5-----5-----5--|--0--7---------------------|


   E  E  E  E  E  E  E  E     E  E  E  E  E  E  E  E   
|--------------------------|--------------------------|
|--9-----9-----9-----9-----|--9-----9-----6-----6-----|
|-----7-----7-----7-----7--|-----6-----6-----4-----4--|
|--------------------------|--------------------------|


   E  E  E  E  E  E  E  E     E  E  E  E  E  E  E  E   
|--------------------------|--------------------------|
|--------------------------|--------------------------|
|--7-----7-----7-----7-----|--7-----7-----9-----9-----|
|-----5-----5-----5-----5--|-----4-----4-----7-----7--|


   E  E  E  E  E  E  E  E     E  E  E  E  E  E  E  E   
|--------------------------|--------------------------|
|--9-----9-----9-----9-----|--9-----9-----6-----6-----|
|-----7-----7-----7-----7--|-----6-----6-----4-----4--|
|--------------------------|--------------------------|


   E  E  E  E  E  E  E  E     E  E  E  E  E  E  E  E   
|--------------------------|-----------------8--9--11--|
|--------------------------|-----------6--9------------|
|--7-----7-----7-----7-----|--------7------------------|
|-----5-----5-----5-----5--|--0--7---------------------|


   E  E  E  E  E  E  E  E     E  E  E  E  E  E  E  E   
|--------------------------|--------------------------|
|--9-----9-----9-----9-----|--9-----9-----6-----6-----|
|-----7-----7-----7-----7--|-----6-----6-----4-----4--|
|--------------------------|--------------------------|


   E  E  E  E  E  E  E  E     E  E  E  E  E  E  E  E   
|--------------------------|--------------------------|
|--------------------------|--------------------------|
|--7-----7-----7-----7-----|--7-----7-----9-----9-----|
|-----5-----5-----5-----5--|-----4-----4-----7-----7--|


  E  E  E  E  E  E  E  E     E  E  E  E  E  E  E  E   
|--------------------------|--------------------------|
|--9-----9-----9-----9-----|--9-----9-----6-----6-----|
|-----7-----7-----7-----7--|-----6-----6-----4-----4--|
|--------------------------|--------------------------|


   E  E  E  E  E  E  E  E     E  E  E  E  E  E  E   E   
|--------------------------|-----------------8--9--11--|
|--------------------------|-----------6--9------------|
|--7-----7-----7-----7-----|--------7------------------|
|-----5-----5-----5-----5--|--0--7---------------------|


   E  E  E  E  E  E  E  E     E  E  E  E  E  E  E  E   
|--------------------------|--------------------------|
|--9-----9-----9-----9-----|--9-----9-----6-----6-----|
|-----7-----7-----7-----7--|-----6-----6-----4-----4--|
|--------------------------|--------------------------|


   E  E  E  E  E  E  E  E     E  E  E  E  E  E  E  E   
|--------------------------|--------------------------|
|--------------------------|--------------------------|
|--7-----7-----7-----7-----|--7-----7-----9-----9-----|
|-----5-----5-----5-----5--|-----4-----4-----7-----7--|


   E  E  E  E  E  E  E  E     E  E  E  E  E  E  E  E   
|--------------------------|--------------------------|
|--9-----9-----9-----9-----|--9-----9-----6-----6-----|
|-----7-----7-----7-----7--|-----6-----6-----4-----4--|
|--------------------------|--------------------------|


   E  E  E  E  E  E  E  E     E  E  E  E  E  E  E   E   
|--------------------------|-----------------8--9--11--|
|--------------------------|-----------6--9------------|
|--7-----7-----7-----7-----|--------7------------------|
|-----5-----5-----5-----5--|--0--7---------------------|


   E  E  E  E  E  E  E  E     E  E  E  E  E  E  E  E   
|--------------------------|--------------------------|
|--9-----9-----9-----9-----|--9-----9-----6-----6-----|
|-----7-----7-----7-----7--|-----6-----6-----4-----4--|
|--------------------------|--------------------------|

Start to fade out.

   E  E  E  E  E  E  E  E     E  E  E  E  E  E  E  E   
|--------------------------|--------------------------|
|--------------------------|--------------------------|
|--7-----7-----7-----7-----|--7-----7-----9-----9-----|
|-----5-----5-----5-----5--|-----4-----4-----7-----7--|


   E  E  E  E  E  E  E  E     E  E  E  E  E  E  E  E   
|--------------------------|--------------------------|
|--9-----9-----9-----9-----|--9-----9-----6-----6-----|
|-----7-----7-----7-----7--|-----6-----6-----4-----4--|
|--------------------------|--------------------------|


   E  E  E  E  E  E  E  E     E  E  E  E  E  E  E  E   
|--------------------------|-----------------8--9--11--|
|--------------------------|-----------6--9------------|
|--7-----7-----7-----7-----|--------7------------------|
|-----5-----5-----5-----5--|--0--7---------------------|


   E  E  E  E  E  E  E  E     E  E  E  E  E  E  E  E   
|--------------------------|--------------------------|
|--9-----9-----9-----9-----|--9-----9-----6-----6-----|
|-----7-----7-----7-----7--|-----6-----6-----4-----4--|
|--------------------------|--------------------------|


  E  E  E  E  E  E  E  E     E  E  E  E  E  E  E  E   
|--------------------------|--------------------------|
|--------------------------|--------------------------|
|--7-----7-----7-----7-----|--7-----7-----9-----9-----|
|-----5-----5-----5-----5--|-----4-----4-----7-----7--|


  E  E  E  E  E  E  E  E     E  E  E  E  E  E  E  E   
|--------------------------|--------------------------|
|--9-----9-----9-----9-----|--9-----9-----6-----6-----|
|-----7-----7-----7-----7--|-----6-----6-----4-----4--|
|--------------------------|--------------------------|

                                                          
  E  E  E  E  E  E  E  E     E  E  E  E  E  E  E   E      W                
|--------------------------|-----------------8--9--11--|------------------||
|--------------------------|-----------6--9------------|------------------||
|--7-----7-----7-----7-----|--------7------------------|--7---------------||
|-----5-----5-----5-----5--|--0--7---------------------|------------------||



Duration Legend
---------------
W - whole
H - half
Q - quarter
E - 8th
S - 16th
T - 32nd
|-n-|  - n-tuplets


Tablature Legend
----------------
h - hammer on
p - pull off
g - grace note

Enjoy!
comments
print report bad tab
5 comments total. Showing first comments.
0 reply
Sleepyjanitor wrote on August 5 2006, 04:27 pm

i dont play bass but im pretty sure this is an amazing tab
nice job

0 reply
steve_au84 wrote on August 10 2006, 07:10 pm

I do play bass and this IS an amazing tab. there are a some notes off here and there but you did an excellent job at tabbing this.
I love seeing some accurate protest the hero tabs, keep it up!

0 reply
stevetravale wrote on September 4 2006, 02:11 pm

Sexy tab, musta takin alota work. gj.

I want to post or [tab]
guest
You may want to rate the tab now too:
select rating
Please do not post tabs as comments. Select "correction" instead!