Oops, an error
Loading. Please wait.

Wretch Bass Tab

1,918 views 1 this week
no commentswrite comment
1 2 3 4 5
excellent!
x 1
Autoscroll
+/-
esc
set tempo
stop
WARNING: You are trying to view
                                    content from Ultimate-Guitar.com
                                    in an unauthorized application,
                                    which is prohibited.

                                    Please use an official Ultimate
                                    Guitar Tabs application for iPhone,
                                    iPad or Android to access legitimate
                                    chords, guitar, bass, and drum tabs
                                    from Ultimate-Guitar.com database.

                                    Type "ultimate guitar tabs" in Apple
                                    App Store's or Android Market's
                                    search to find the application.
Arif Mirabdolbaghi

For everyone without Guitar Pro. Tabbed by Tom DeLonge II.

      S S S S E  S S S S E  S S S S    S S S S E  S S S S E  S S S S  
F#||--------------------------------|--------------------------------|
C#||--------------------------------|--------------------------------|
G#||--------------------------------|--------------------------------|
D#||--0-0-0-0----0-0-0-0----0-0-0-0-|--0-0-0-0----0-0-0-0----0-0-0-0-|
G#||--------------------------------|--------------------------------|


  S S S S S S S S S S S S S S S S    S S S S S S S S S S S S S S S S  
----------------------------------|----------------------------------|
----------------------------------|----------------------------------|
----------------------------------|----------------------------------|
--0-0-0-0-0-0-0-0-0-0-0-0-0-0-0-0-|--0-0-0-0-0-0-0-0-0-0-0-0-0-0-0-0-|
----------------------------------|----------------------------------|


  S S S S E  S S S S E  S S S S    S S S S E  S S S S E  S S S S  
--------------------------------|--------------------------------|
--------------------------------|--------------------------------|
--------------------------------|--------------------------------|
--0-0-0-0----0-0-0-0----0-0-0-0-|--0-0-0-0----0-0-0-0----0-0-0-0-|
--------------------------------|--------------------------------|


  S S S S S S S S S S S S S S S S    S S S S S S S S S S S S S S S S  
----------------------------------|----------------------------------|
----------------------------------|----------------------------------|
----------------------------------|----------------------------------|
--0-0-0-0-0-0-0-0-0-0-0-0-0-0-0-0-|--0-0-0-0-0-0-0-0-0-0-0-0-0-0-0-0-|
----------------------------------|----------------------------------|


  Q    E  E  H        Q    E  E  E  E   
---------------------------------------|
---------------------------------------|
---------------------------------------|
-------0--0-------------------0--0-----|
---------------------------------------|


                   |--3--|                               
  S S S S E  E  E  S  S  S E  E  S S S S S S E  E  S  S  
--------------------------------------------------------|
--------------------------------------------------------|
--------3----------0h-5h-7-------------3-5-7-------5h-7-|
--3-5-7---0--0-------------0--0--3-5-7-------0--0-------|
--------------------------------------------------------|


                   |--3--|                   
  S S S S E  E  E  S  S  S E  E  S S S S E   
--------------------------------------------|
--------------------------------------------|
--------3----------0h-5h-7-------------3-5--|
--3-5-7---0--0-------------0--0--3-5-7------|
--------------------------------------------|


                   |--3--|                       
  S S S S E  E  E  S  S  S E  E  S S S S S S E   
------------------------------------------------|
------------------------------------------------|
--------3----------0h-5h-7-------------3-5-7----|
--3-5-7---0--0-------------0--0--3-5-7-------0--|
------------------------------------------------|


                   T                           T           T     
   S   S   S   S   S   S   S   S   S   S   S   S   S   S   S  S  
----------------------------------------------------------------|
--12h-13p-10h-13h-17p-10h-13p-12h-13p-10h-12h-17p-13p-12h-15p-9-|
----------------------------------------------------------------|
----------------------------------------------------------------|
----------------------------------------------------------------|


                   T                           T           T     
   S   S   S   S   S   S   S   S   S   S   S   S   S   S   S  S  
----------------------------------------------------------------|
--12h-13p-10h-13h-17p-10h-13p-12h-13p-10h-12h-17p-13p-12h-15p-9-|
----------------------------------------------------------------|
----------------------------------------------------------------|
----------------------------------------------------------------|


                   |--3--|                       
  S S S S E  E  E  S  S  S E  E  S S S S S S E   
------------------------------------------------|
------------------------------------------------|
--------3----------0h-5h-7-------------3-5-7----|
--3-5-7---0--0-------------0--0--3-5-7-------0--|
------------------------------------------------|


                   T                           T           T     
   S   S   S   S   S   S   S   S   S   S   S   S   S   S   S  S  
----------------------------------------------------------------|
--12h-13p-10h-13h-17p-10h-13p-12h-13p-10h-12h-17p-13p-12h-15p-9-|
----------------------------------------------------------------|
----------------------------------------------------------------|
----------------------------------------------------------------|


                   T                           T           T     
   S   S   S   S   S   S   S   S   S   S   S   S   S   S   S  S  
----------------------------------------------------------------|
--12h-13p-10h-13h-17p-10h-13p-12h-13p-10h-12h-17p-13p-12h-15p-9-|
----------------------------------------------------------------|
----------------------------------------------------------------|
----------------------------------------------------------------|


  Q    E  S S E  S S E  S S    E  E  E  S S E  S S E  S S  
----------------------------|-----------------------------|
----------------------------|-----------------------------|
----------------------------|-----------------------------|
--0-------0-0-0--0-0-0--0-0-|--0--0-----0-0-0--0-0-0--0-0-|
----------------------------|-----------------------------|


  E  E  E  S S E  S S E  S S    E  E  E  E  E  E  E  E   
-----------------------------|--------------------------|
-----------------------------|--------------------------|
-----------------------------|--3--3--3--3--3--3--3--3--|
--0--2-----2-2-2--2-2-2--2-2-|--------------------------|
-----------------------------|--------------------------|


  Q    E  S S E  S S E  S S    E  E  E  S S E  S S E  S S    H        H         
----------------------------|-----------------------------|--------------------|
----------------------------|-----------------------------|--------------------|
----------------------------|-----------------------------|--6-----------------|
--0-------0-0-0--0-0-0--0-0-|--0--0-----0-0-0--0-0-0--0-0-|-----------5--------|
----------------------------|-----------------------------|--------------------|


  H        H           Q    E  S S E  S S E  S S    E  E  E  S S E  S S E  S S  
--------------------|----------------------------|-----------------------------|
--------------------|----------------------------|-----------------------------|
--4-----------------|----------------------------|-----------------------------|
-----------3--------|--0-------0-0-0--0-0-0--0-0-|--0--0-----0-0-0--0-0-0--0-0-|
--------------------|----------------------------|-----------------------------|


  E  E  E  S S E  S S E  S S    E  E  E  E  E  E  E  E   
-----------------------------|--------------------------|
-----------------------------|--------------------------|
-----------------------------|--3--3--3--3--3--3--3--3--|
--0--2-----2-2-2--2-2-2--2-2-|--------------------------|
-----------------------------|--------------------------|


  Q    E  S S E  S S E  S S    E  E  E  S S E  S S E  S S    H        H         
----------------------------|-----------------------------|--------------------|
----------------------------|-----------------------------|--------------------|
----------------------------|-----------------------------|--6-----------------|
--0-------0-0-0--0-0-0--0-0-|--0--0-----0-0-0--0-0-0--0-0-|-----------5--------|
----------------------------|-----------------------------|--------------------|


  H        H           S S S S E  S S S S E  S S S S  
--------------------|--------------------------------|
--------------------|--------------------------------|
--4-----------------|--------------------------------|
-----------3--------|--0-0-0-0----0-0-0-0----0-0-0-0-|
--------------------|--------------------------------|


  S S S S E  S S S S E  S S S S    S S S S S S S S S S S S S S S S  
--------------------------------|----------------------------------|
--------------------------------|----------------------------------|
--------------------------------|----------------------------------|
--0-0-0-0----0-0-0-0----0-0-0-0-|--0-0-0-0-0-0-0-0-0-0-0-0-0-0-0-0-|
--------------------------------|----------------------------------|


  S S S S S S S S S S S S S S S S    S S S S E  S S S S E  S S S S  
----------------------------------|--------------------------------|
----------------------------------|--------------------------------|
----------------------------------|--------------------------------|
--0-0-0-0-0-0-0-0-0-0-0-0-0-0-0-0-|--0-0-0-0----0-0-0-0----0-0-0-0-|
----------------------------------|--------------------------------|


  S S S S E  S S S S E  S S S S    S S S S S S S S S S S S S S S S  
--------------------------------|----------------------------------|
--------------------------------|----------------------------------|
--------------------------------|----------------------------------|
--0-0-0-0----0-0-0-0----0-0-0-0-|--0-0-0-0-0-0-0-0-0-0-0-0-0-0-0-0-|
--------------------------------|----------------------------------|


  S S S S S S S S S S S S S S S S    W                   W                 
----------------------------------|-------------------|-------------------|
----------------------------------|-------------------|-------------------|
----------------------------------|-------------------|-------------------|
--0-0-0-0-0-0-0-0-0-0-0-0-0-0-0-0-|--5----------------|--7----------------|
----------------------------------|-------------------|-------------------|


  W                   W                   Q.     E  Q.     E   
-------------------|-------------------|----------------------|
-------------------|-------------------|----------------------|
-------------------|-------------------|----------------------|
-------------------|-------------------|--5------4--4------2--|
--5----------------|--7----------------|----------------------|


  Q.     E  Q.     E     Q.     E  Q.     E     Q.     E  H         
----------------------|----------------------|---------------------|
----------------------|----------------------|---------------------|
----------------------|----------------------|---------------------|
--2------0--0---------|----------------------|---------------------|
-------------------5--|--5------8--8------5--|--5------7--7--------|


  S S S S E  S S S S E  S S S S    S S S S H        Q     
--------------------------------|------------------------|
--------------------------------|------------------------|
--------------------------------|------------------------|
--0-0-0-0----0-0-0-0----0-0-0-0-|--0-0-0-0---------------|
--------------------------------|------------------------|


  E.  E.  E  E  S S S S S S    E.  E.  E  E  E   Q      
----------------------------|--------------------------|
----------------------------|--------------------------|
----------------------------|--------------------------|
--0----------5--5-5-5---5-5-|--0----------5-----12\----|
------6---3-----------------|------6---3---------------|


  E.  E.  E  E  S S S S S S    S S S S S S S S S S S S S S S S  
----------------------------|----------------------------------|
----------------------------|----------------------------------|
----------------------------|----------------------------------|
--0----------5--5-5-5---5-5-|--0---0---0-0---0---0---0-0---0---|
------6---3-----------------|----------------------------------|


  E.  E.  E  E  S S S S S S    E.  E.  E  E  E   Q      
----------------------------|--------------------------|
----------------------------|--------------------------|
----------------------------|--------------------------|
--0----------5--5-5-5---5-5-|--0----------5-----12\----|
------6---3-----------------|------6---3---------------|


  E.  E.  E  E  S S S S S S    E  W                H        E   
----------------------------|----------------------------------|
----------------------------|----------------------------------|
----------------------------|----------------------------------|
--0----------5--5-5-5---5-5-|--0-------------------------------|
------6---3-----------------|----------------------------------|


  E.  E.  E  E  S S S S S S    E.  E.  E  E     E.  E.  E  E  S S S S S S  
----------------------------|----------------|----------------------------|
----------------------------|----------------|----------------------------|
--7---6---------------------|--7---6---------|--7---6---------------------|
----------8--5--5-5-5---5-5-|----------8--5--|----------8--5--5-5-5---5-5-|
----------------------------|----------------|----------------------------|


              |--3--|  |--3--|                           
  E  E  E  E  E  E  E  E  E  E     E  E  S E  Q    E  S  
--------------------------------|-----------------------|
--------------------------------|-----------------------|
--7--6--------9--7--6-----------|-----------------------|
--------8--5-----------8--7--5--|--3-------3------------|
--------------------------------|-----------------------|


  E.  E.  E  E  S S S S S S    E.  E.  E  E  E   Q      
----------------------------|--------------------------|
----------------------------|--------------------------|
----------------------------|--------------------------|
--0----------5--5-5-5---5-5-|--0----------5-----12\----|
------6---3-----------------|------6---3---------------|


  E.  E.  E  E  S S S S S S    E  W                H        E   
----------------------------|----------------------------------|
----------------------------|----------------------------------|
----------------------------|----------------------------------|
--0----------5--5-5-5---5-5-|--0-------------------------------|
------6---3-----------------|----------------------------------|


  E  E   S  S  S  E  Q    S E  E   S  S  S  E  Q    S  
------------------------------------------------------|
------------------------------------------------------|
------------------------------------------------------|
--0--0--12-12-12-12---------0--0--12-12-12-12---------|
------------------------------------------------------|


  E  E   S  S  S  E  Q    S E  E   S  S  S  E  Q    S  
------------------------------------------------------|
------------------------------------------------------|
------------------------------------------------------|
--0--0--12-12-12-12---------0--0--12-12-12-12---------|
------------------------------------------------------|


  H        E  S S E  S S    H        E  S S E  S S    E  E  Q.     E  E  E   
-------------------------|-------------------------|------------------------|
-------------------------|-------------------------|------------------------|
-------------------------|-------------------------|------------------------|
--0--------L--0-0-1--0-0-|--0--------L--0-0-1--0-0-|--0---------------------|
-------------------------|-------------------------|-----4--L------4--4--4--|


  W                   H        E  S S E  S S    H        E  S S E  S S  
-------------------|-------------------------|-------------------------|
-------------------|-------------------------|-------------------------|
-------------------|-------------------------|-------------------------|
-------------------|--0--------L--0-0-1--0-0-|--0--------L--0-0-1--0-0-|
--0----------------|-------------------------|-------------------------|


  E  E  Q.     E  E  E     W                   E.  E  E  S S E  S E  E   
------------------------|-------------------|---------------------------|
------------------------|-------------------|---------------------------|
------------------------|-------------------|------7-------x-7--x-7-----|
--0---------------------|-------------------|--0---------------------0--|
-----4--L------4--4--4--|--0----------------|---------------------------|


  E.  E  E  S S E  S E  E     E.  E  E  S S E  S E  E   
---------------------------|---------------------------|
---------------------------|------6-------x-6--x-6-----|
------7-------x-7--x-7-----|--4---------------------4--|
--0---------------------0--|---------------------------|
---------------------------|---------------------------|


  E.  E.  E  S S E  S S E     E.  E  E  S S E  S E  E   
---------------------------|---------------------------|
---------------------------|---------------------------|
------7---L----------------|------7-------x-7--x-7-----|
--5----------5-5-5--4-4-4--|--0---------------------0--|
---------------------------|---------------------------|


  E.  E  E  S S E  S E  E     E.  E  E  S S E  S E  E   
---------------------------|---------------------------|
---------------------------|------6-------x-6--x-6-----|
------7-------x-7--x-7-----|--4---------------------4--|
--0---------------------0--|---------------------------|
---------------------------|---------------------------|


  E.  E.  E  S S E  S S S S    Q    H        Q       E  E  E  E  E  E  E  E   
----------------------------|---------------------|--------------------------|
----------------------------|---------------------|--------------------------|
------7---L-----------------|---------------------|--------------------------|
--5----------5-5-5--5-5-5-5-|--0------------------|--0--0-----0-----0-----0--|
----------------------------|---------------------|--------------------------|


  E  E  E  E  E  E  E  E     E  E  E  E  E  E  E  E   
--------------------------|--------------------------|
--------------------------|--------------------------|
--------------------------|--3--3--3--3--3--3--3--3--|
--2--2--2--2--2--2--2--2--|--------------------------|
--------------------------|--------------------------|


  Q    E  S S E  S S E  S S    Q    E  S S E  S S E  S S    H        H         
----------------------------|----------------------------|--------------------|
----------------------------|----------------------------|--------------------|
----------------------------|----------------------------|--6-----------------|
--0-------0-0-0--0-0-0--0-0-|--0-------0-0-0--0-0-0--0-0-|-----------5--------|
----------------------------|----------------------------|--------------------|


  H        H           H        H           H        H         
--------------------|--------------------|--------------------|
--------------------|--------------------|--------------------|
--4-----------------|--2-----------------|--------------------|
-----------3--------|-----------2--------|--5--------0--------|
--------------------|--------------------|--------------------|


  S S S S S S H        E     H         S  S  S S  S  S S  S  S S  S S  
--------------------------|-------------------------------------------|
--------------------------|-------------------------------------------|
--------------------------|----------------------------9-11-13--------|
--------------------------|--------------------8-10-12---------8-10---|
--6-6-6-6---6-------------|-----------10-11-13----------------------6-|


  S S S S S S S S S S S S S S S S    S S S S S S S S S S S S S S S S  
----------------------------------|----------------------------------|
----------------------------------|----------------------------------|
----------------------------------|----------------------------------|
----------------------------------|----------------------------------|
----6---6-6-6-6-6---6---6-6-6-6-6-|----6---6-6-6-6-6-6-6-6-6-6-6-6-6-|


  S S S S S S S S S S S S S S S S    S S S S S S S S S S S S S S S S  
----------------------------------|----------------------------------|
----------------------------------|----------------------------------|
----------------------------------|----------------------------------|
----------------------------------|----------------------------------|
----6---6-6-6-6-6---6---6-6-6-6-6-|----6---6-6-6-6-6-6-6-6-6-6-6-6-6-|


  S S S S S S S S S S S S S S S S    S S S S S S S S S S S S S S S S  
----------------------------------|----------------------------------|
----------------------------------|----------------------------------|
----------------------------------|----------------------------------|
----------------------------------|----------------------------------|
----6---6-6-6-6-6---6---6-6-6-6-6-|----6---6-6-6-6-6-6-6-6-6-6-6-6-6-|


  W                   H.           E   E     H        E  S S S S S S  
-------------------|----------------------|--------------------------|
-------------------|----------------------|--------------------------|
-------------------|---------------2s--3--|--3--------L--------------|
--1----------------|--L-------------------|--------------------------|
-------------------|----------------------|--------------3-3-3---3-3-|


  S S S S S S S S S S S S S S S S    H        Q     Q     
----------------------------------|----------------------|
----------------------------------|----------------------|
----------------------------------|----------------------|
----------------------------------|--3--------3s----1----|
--3---3-3-3---3-3-3---3-3-3---3-3-|----------------------|


  H.           E   E     W                   H.           Q        Q    E  E   
----------------------|-------------------|---------------------|-------------|
----------------------|-------------------|---------------------|-------------|
---------------2s--3--|--3----------------|---------------------|-------------|
--1-------------------|-------------------|--4------------L\----|----------0--|
----------------------|-------------------|---------------------|-------------|


  E  S S S S S S   E  E  E  S S      E   E  E  S S   E  E  E  E   
--------------------------------|--------------------------------|
--------------------------------|--------------------------------|
-----------------5g7------------|--5g7b------------5g7-----------|
--L--0-0-0-0-0--------7--3--0-0-|--------8--5--0-0------7--3--0--|
--------------------------------|--------------------------------|


         |--3--|                                                   
  E  S S E  E  E    E  E  E  S S      E   E  E  S S   E  E  E  E   
---------------------------------|--------------------------------|
---------------------------------|--------------------------------|
------------------5g7------------|--5g7b------------5g7-----------|
--L--0-0-0--0--0-------7--3--0-0-|--------8--5--0-0------7--3--0--|
---------------------------------|--------------------------------|


  E  S S S S S S   E  E  E  E       E   E  E  E    E  E  E  E   
-------------------------------|-------------------------------|
-------------------------------|-------------------------------|
-----------------5g7-----------|--5g7b-----------5g7-----------|
--L--0---0-0-0--------7--3--0--|--------8--5--0-------7--3--0--|
-------------------------------|-------------------------------|


  E  S S S S S S   E  E  E  E       E   E  E  E     S H        S S Q    S  
-------------------------------|-----------------|------------------------|
-------------------------------|-----------------|------------------------|
-----------------5g7-----------|--5g7b-----------|------------------------|
--L--0-0---0-0--------7--3--0--|--------8--5-----|--0------------0--------|
-------------------------------|-----------------|------------------------|


  S S S H        Q    S    E  S H        Q    S    S S S S S E  S  
------------------------|-----------------------|-----------------|
------------------------|-----------------------|-----------------|
------------------------|-----------------------|-----------------|
--0-0-0-----------------|-----0-----------------|--0-0-0-0-0------|
------------------------|-----------------------|-----------------|


  S S S S S S S S   H           S S S S S S S S   E  E  Q     
-----------------------------|-------------------------------|
-----------------------------|-------------------------------|
------------------5g7--------|------------------5g7----------|
--0-0-0-0-0-0-0-0------------|--0-0-0-0-0-0-0-0------0--L----|
-----------------------------|-------------------------------|


  S S S S S S S S   H           S S S S S S S S   E  E  Q     
-----------------------------|-------------------------------|
-----------------------------|-------------------------------|
------------------5g7--------|------------------5g7----------|
--0-0-0-0-0-0-0-0------------|--0-0-0-0-0-0-0-0------0--L----|
-----------------------------|-------------------------------|


  S   S S  S S  S S  S   H           S   S S  S S  S S  S   E  E  Q     
----------------------------------|------------------------------------|
----------------------------------|------------------------------------|
-------------5h-7------5g7--------|-------------5h-7------5g7----------|
--------5h-7------5h-7------------|--------5h-7------5h-7------0--L----|
--7h-10---------------------------|--7h-10-----------------------------|


  S   S S  S S  S S  S   H           S   S S  S S  S S  S S  S S S S S S S  
----------------------------------|----------------------------------------|
----------------------------------|----------------------------------------|
-------------5h-7------5g7--------|-------------5h-7------5h-7-------------|
--------5h-7------5h-7------------|--------5h-7------5h-7------0-0-0-0-0-0-|
--7h-10---------------------------|--7h-10---------------------------------|


  S Q    S S E  S S S S E  S    Q    Q    Q    Q     
-----------------------------|----------------------|
-----------------------------|----------------------|
--3--------3------3-3-3------|--3-------------------|
-----------------------------|-------3----4----6----|
-----------------------------|----------------------|


  E  S E  S S E  S S S S E  S    Q    Q    Q    Q     
------------------------------|----------------------|
------------------------------|----------------------|
-----3------3------3-3-3------|--3-------------------|
------------------------------|-------3----4----6----|
------------------------------|----------------------|


  S S S S S S S S S S S S S S S S    S S S S S S S S S S S S S S S S  
----------------------------------|----------------------------------|
----------------------------------|----------------------------------|
--3-3-3-3-3-3-3-3-3-3-3-3-3-3-3-3-|----------------------------------|
----------------------------------|--3-3-3-3-3-3-3-3-3-3-3-3-3-3-3-3-|
----------------------------------|----------------------------------|


  S S S S S S S S S S S S S S S S    S S S S S S S S S S S S S S S S  
----------------------------------|----------------------------------|
----------------------------------|----------------------------------|
----------------------------------|--2-2-2-2-2-2-2-2-2-2-2-2-2-2-2-2-|
--4-4-4-4-4-4-4-4-4-4-4-4-4-4-4-4-|----------------------------------|
----------------------------------|----------------------------------|


  S S S S S S S S S S S S S S S S    S S S S S S S S S S S S S S S S  
----------------------------------|----------------------------------|
----------------------------------|----------------------------------|
--3-3-3-3-3-3-3-3-3-3-3-3-3-3-3-3-|----------------------------------|
----------------------------------|--3-3-3-3-3-3-3-3-3-3-3-3-3-3-3-3-|
----------------------------------|----------------------------------|


  S S S S S S S S S S S S S S S S    S S S S S S S S S S S S S S S S  
----------------------------------|----------------------------------|
----------------------------------|----------------------------------|
----------------------------------|--2-2-2-2-2-2-2-2-2-2-2-2-2-2-2-2-|
--4-4-4-4-4-4-4-4-4-4-4-4-4-4-4-4-|----------------------------------|
----------------------------------|----------------------------------|


  E  H        Q    E    
----------------------||
----------------------||
--3-------------------||
----------------------||
----------------------||




Duration Legend
---------------
W - whole
H - half
Q - quarter
E - 8th
S - 16th
T - 32nd
X - 64th
. - note dotted
|-n-|  - n-tuplets


Tablature Legend
----------------
L - tied note
x - dead note
g - grace note
(n) - ghost note
> - accentuded note
NH - natural harmonic
AH - artificial harmonic
TH - tapped harmonic
SH - semi harmonic
PH - pitch harmonic
h - hammer on
p - pull off
b - bend
br - bendRelease
pb - preBend
pbr - preBendRelease
brb - bendReleaseBend
\n/ - tremolo bar dip
\n - tremolo bar dive
-/n - tremolo bar Release up
/n\ - tremolo bar inverted dip
/n - tremolo bar return
-\n - tremolo bar Release down
S - shift slide
s - legato slide
/ -  slide into from below or out of upwards
\ -  slide into from above or out of downwards
~ - vibrato
W - wide vibrato
tr - trill
TP - tremolo picking
T - tapping
S - slap
P - pop
< - fade in
^ - brush up
v - brush down
comments
We did not receive enough feedback on this tab! Please rate:
1 2 3 4 5
I want to post or [tab]
guest
You may want to rate the tab now too:
select rating
Please do not post tabs as comments. Select "correction" instead!