Oops, an error
Loading. Please wait.

Battling The Misery Of Organon Tab

ver2
ver2

Whole song

More versions @911Tabs.com
33 views 1 this week
no commentswrite comment
1 2 3 4 5
please rate
Autoscroll
+/-
esc
set tempo
stop
Contributor
WARNING: You are trying to view
                                    content from Ultimate-Guitar.com
                                    in an unauthorized application,
                                    which is prohibited.

                                    Please use an official Ultimate
                                    Guitar Tabs application for iPhone,
                                    iPad or Android to access legitimate
                                    chords, guitar, bass, and drum tabs
                                    from Ultimate-Guitar.com database.

                                    Type "ultimate guitar tabs" in Apple
                                    App Store's or Android Market's
                                    search to find the application.
Psycroptic - 'Battling The Misery Of Organon'
The Scepter Of The Ancients (2003)
Unique Leader Records



________________________________________________________________________________

Gtr I (D A D G B E) - 'Joe Haley'
Gtr II (D A D G B E) - 'Joe Haley'

   Riff 1 (0:00)
    Q=225
   4/4
    Gtrs I, II
    PM------|    PM--------|                     PM|           PM|
    S S E E E Q  S S S S   E E Q  Q  Q    E Q.   E E Q    +Q   E E H
||-----------------------|--------------|---------------|---------------|
||o----------------------|--------------|---------------|---------------|
||-----------------------|--------------|---------------|---------------|
||-----------------------|-----5--8--7--|---------------|---------------|
||o---------6-5----------|-----3--6--5--|-4s5----4-0-4--|-(4)--1-0-1----|
||--7-7-5-4------0-0-0-0-|-0------------|-4s5----4-0-4--|-(4)--1-0-1----|


  Gtrs I, II
  PM------|    PM--------|
  S S E E E Q  S S S S   E E Q  Q  Q
|----------------------|--------------|
|----------------------|--------------|
|----------------------|--------------|
|----------------------|-----5--8--7--|
|---------6-5----------|-----3--6--5--|
|-7-7-5-4------0-0-0-0-|-0------------|


    PM  PM  PM  PM      PM|   PM--|       PM--|   PM--|
  E E E E E E E E   E E E E E E E E     E E E E E E E E
|-----------------|------------------||-----------------|
|-----------------|-----------------o||-----------------|
|-----------------|------------------||-----------------|
|-5-1-4-0-8-4-7-4-|-8p7-5-4-7-4-5----||-5-4-----4-------|
|-----------------|---------------6-o||-----6-5---6-5-3-|
|-----------------|------------------||-----------------|


   Riff 2 (0:18)
    Gtrs I, II
    PM------|      PM----|       PM-------
    S S S S E E Q  E E   E E E E E E E E
||---------------------|-----------------|
||o--------------------|-----------------|
||---------------------|-----------------|
||--------------0------|---6-------------|
||o-------------0------|-4---4p0---------|
||--0-0-0-0-0---0--0-0-|---------5-4-1-0-|


 ---------|      PM|         PM--| ~
  S S S S E E Q  E E   E E E E E E Q
|--------------------|------------------||
|--------------------|-----------------o||
|--------------------|------------------||
|-------------0------|-6----------------||
|-------------0------|---4p0-------5---o||
|-0-0-0-0-5---0--0-0-|-------5-4-0------||


 Riff 3 (0:26)
  Gtrs I, II
  PM------|   PM------|       PM--|     PM---
  S S S S E E S S S S E E   E E E E E E E E
|-------------------------|-----------------|
|-------------------------|-----------------|
|-------------------------|-----------------|
|-------------------------|---------3p0-----|
|-------------------------|-------5---------|
|-0-0-0-0-0---0-0-0-0-0---|-0-3-6-------6-3-|


 ---------|   PM------|         PM--|   PM~
  S S S S E E S S S S E E   E E E E E E E E
|-------------------------|------------------|
|-------------------------|------------------|
|-------------------------|------------------|
|-------------------------|-3p0--------------|
|-------------------------|------------------|
|-0-0-0-0-0---0-0-0-0-0---|-----6-3-0-5-0-1--|


  Gtrs I, II
  PM------|   PM------|       PM--|     PM---
  S S S S E E S S S S E E   E E E E E E E E
|-------------------------|-----------------|
|-------------------------|-----------------|
|-------------------------|-----------------|
|-------------------------|---------3p0-----|
|-------------------------|-------5---------|
|-0-0-0-0-0---0-0-0-0-0---|-0-3-6-------6-3-|


 ---------|   PM------|         PM--|   PM|
  S S S S E E S S S S E E   E E E E E E E E
|-------------------------|------------------|
|-------------------------|------------------|
|-------------------------|------------------|
|-------------------------|-3p0--------------|
|-------------------------|------------------|
|-0-0-0-0-0---0-0-0-0-0---|-----6-3-0-5-0-1--|


   Riff 1a (0:34)
    Gtrs I, II
    PM------|    PM--------|                     PM----|           PM|
    S S E E E Q  S S S S   E E Q  Q  Q    E Q.   S S S S Q    +Q   E E H
||-----------------------|--------------|-------------------|---------------|
||o----------------------|--------------|-------------------|---------------|
||-----------------------|--------------|-------------------|---------------|
||-----------------------|-----5--8--7--|-------------------|---------------|
||o---------6-5----------|-----3--6--5--|-4s5----4-4-0-0-4--|-(4)--1-0-1----|
||--7-7-5-4------0-0-0-0-|-0------------|-4s5----4-4-0-0-4--|-(4)--1-0-1----|


  Gtrs I, II
  PM------|    PM--------|
  S S E E E Q  S S S S   E E Q  Q  Q
|----------------------|--------------|
|----------------------|--------------|
|----------------------|--------------|
|----------------------|-----5--8--7--|
|---------6-5----------|-----3--6--5--|
|-7-7-5-4------0-0-0-0-|-0------------|


    PM  PM  PM  PM      PM|   PM--|       PM--|   PM--|
  E E E E E E E E   E E E E E E E E     E E E E E E E E
|-----------------|------------------||-----------------|
|-----------------|-----------------o||-----------------|
|-----------------|------------------||-----------------|
|-5-1-4-0-8-4-7-4-|-8p7-5-4-7-4-5----||-5-4-----4-------|
|-----------------|---------------6-o||-----6-5---6-5-0-|
|-----------------|------------------||-----------------|


   Riff 4 (0:53)
    Gtrs I, II
         PM----|                   PM----|
    H    E E E E   W          H    E E E E   Q  Q  H     4x
||---------------|----------|--------------|-------------||
||o--------------|----------|--------------|------------o||
||---------------|----------|--------------|-------------||
||--5------------|-4--------|-5------------|-5--6--4-----||
||o-3----4-3---4-|-2--------|-3----4-3---4-|-3--4--2----o||
||-------4-3---4-|----------|------4-3---4-|-------------||


 Riff 5 (1:10)
  Gtr I
                     PM                   PM--|
  Q  H               Q    H               E E E E
|-----------------------|-------------------------|
|-----------------------|-------------------------|
|-----------------------|-------------------------|
|-----------------------|-------------------------|
|-0------------------0--|-----------------5-4-1-4-|
|-0------------------0--|-------------------------|
|
| Gtr II
| PM                 PM                   PM--|
| Q  S S S S S S S S Q    S S S S S S S S E E E E
|-----------------------|-------------------------|
|-----------------------|-------------------------|
|-----------------------|-------------------------|
|-----------------------|-------------------------|
|-0--1-1-1-1-1-1-1-1-0--|-----------------5-4-1-4-|
|-0------------------0--|-4-4-4-4-4-4-4-4---------|


                     PM                   PM--------|
                                          |-3-| |-3-|
  Q  H               Q    H               E E E E E E
|-----------------------|------------------------------|
|-----------------------|------------------------------|
|-----------------------|------------------------------|
|-----------------------|------------------------------|
|-0------------------0--|-----------------------1-4-5--|
|-0------------------0--|-----------------1-3-4--------|
|
| PM                 PM                   PM--------|
|                                         |-3-| |-3-|
| Q  S S S S S S S S Q    S S S S S S S S E E E E E E
|-----------------------|------------------------------|
|-----------------------|------------------------------|
|-----------------------|------------------------------|
|-----------------------|------------------------------|
|-0--1-1-1-1-1-1-1-1-0--|-----------------------1-4-5--|
|-0------------------0--|-4-4-4-4-4-4-4-4-1-3-4--------|


  Gtrs I, II
  PM                 PM                   PM--|
  Q  S S S S S S S S Q    S S S S S S S S E E E E
|-----------------------|-------------------------|
|-----------------------|-------------------------|
|-----------------------|-------------------------|
|-----------------------|-------------------------|
|-0--1-1-1-1-1-1-1-1-0--|-----------------5-4-1-4-|
|-0------------------0--|-4-4-4-4-4-4-4-4---------|


  PM                 PM                   PM--------|
                                          |-3-| |-3-|
  Q  S S S S S S S S Q    S S S S S S S S E E E E E E
|-----------------------|------------------------------|
|-----------------------|------------------------------|
|-----------------------|------------------------------|
|-----------------------|------------------------------|
|-0--1-1-1-1-1-1-1-1-0--|-----------------------1-4-5--|
|-0------------------0--|-4-4-4-4-4-4-4-4-1-3-4--------|


  Gtrs I, II
                            ~
  S S S S S S S S E E E E   Q  S S S S E E Q
|-------------------------|-------------------|
|-------------------------|-------------------|
|-------------------------|-------------------|
|-------------------------|-------------------|
|-3-3-3-3-3-3-3-3---------|----3-3-3-3--------|
|-----------------4-4-4-4-|-4----------4-4-1--|


                            PM--|   PM--|
  S S S S S S S S E E E E   E E E E E E E E
|-------------------------|-------------------|
|-------------------------|-------------------|
|-------------------------|-------------------|
|-------------------------|-5-----------------|
|-3-3-3-3-3-3-3-3---------|-3-4-1---4-1-0-----|
|-----------------4-4-4-4-|---4-1---4-1-0-----|


  Gtrs I, II
                   ~                                PM--|       PM|
  E E Q  E E E E   Q  E E Q   Q    E E Q  E E E E   E E E E E E E E
|----------------|---------------|----------------|-----------------|
|----------------|---------------|----------------|-----------------|
|----------------|---------------|----------------|-----------------|
|-5-5-5----------|----5-5--------|-5-5-5----------|-------4p1-------|
|-3-3-3--4-4-4-4-|----3-3-4--\1--|-3-3-3--4-4-4-4-|-4-1-0-----3-----|
|--------4-4-4-4-|-4------4--\1--|--------4-4-4-4-|-4-1-0-------4-1-|


    Gtrs I, II
    PM                 PM                   PM--|
    Q  S S S S S S S S Q    S S S S S S S S E E E E
||------------------------|-------------------------|
||o-----------------------|-------------------------|
||------------------------|-------------------------|
||------------------------|-------------------------|
||o-0--1-1-1-1-1-1-1-1-0--|-----------------5-4-1-4-|
||--0------------------0--|-4-4-4-4-4-4-4-4---------|


  PM                 PM                   PM--------|
                                          |-3-| |-3-|
  Q  S S S S S S S S Q    S S S S S S S S E E E E E E
|-----------------------|-------------------------------||
|-----------------------|------------------------------o||
|-----------------------|-------------------------------||
|-----------------------|-------------------------------||
|-0--1-1-1-1-1-1-1-1-0--|-----------------------1-4-5--o||
|-0------------------0--|-4-4-4-4-4-4-4-4-1-3-4---------||


  Gtrs I, II
                            ~
  S S S S S S S S E E E E   Q  S S S S E E Q
|-------------------------|-------------------|
|-------------------------|-------------------|
|-------------------------|-------------------|
|-------------------------|-------------------|
|-3-3-3-3-3-3-3-3---------|----3-3-3-3--------|
|-----------------4-4-4-4-|-4----------4-4-1--|


                            PM--|   PM--|
  S S S S S S S S E E E E   E E E E E E E E
|-------------------------|-------------------|
|-------------------------|-------------------|
|-------------------------|-------------------|
|-------------------------|-5-----------------|
|-3-3-3-3-3-3-3-3---------|-3-4-1---4-1-0-----|
|-----------------4-4-4-4-|---4-1---4-1-0-----|


  Gtrs I, II
                   ~                              ~    PM----|       PM|
  E E Q  E E E E   Q  E E Q   Q    E E Q  S S S S Q    S S E E E E E E E
|----------------|---------------|-------------------|--------------------|
|----------------|---------------|-------------------|--------------------|
|----------------|---------------|-------------------|--------------------|
|-5-5-5----------|----5-5--------|-5-5-5-------------|-------1-4p1--------|
|-3-3-3--4-4-4-4-|----3-3-4--\1--|-3-3-3--4-4-4-4-4--|-----3-------3------|
|--------4-4-4-4-|-4------4--\1--|--------4-4-4-4-4--|-1-4-----------4-1--|


   Riff 6 (1:42)
      PM|    PM|            PM--------------|
    E E E  E E E Q        E E E S S E S S E E
||----------------------|---------------------|
||o---------------------|---------------------|
||----------------------|---------------------|
||--3-------------------|-------------1-3-5-0-|
||o-1-----/5------------|-5-0-2-2-4-4---------|
||----2-2-/5-2-1-1b1.5r=|=====================|


    PM|   PM|   PM
  E E E E E E E E   E E    +E  E Q  Q
|-----------------|---------------------||
|-----------------|--------------------o||
|-----------------|---------------------||
|---3-------------|--------------0------||
|-2-1-1-5-2-1-2-2-|-1s4b5r=(4)s1-0-----o||
|-----1-5-2-1---2-|-1s4b5r=(4)s1-0------||


 Riff 7 (1:51)
  Gtr I
                                          PM--------|
  q   H.                       H          S S E S S E
|----------------------------|------------------------|
|----------------------------|------------------------|
|----------------------------|------------------------|
|-3--------------------------|------------------0-3-4-|
|-1--------------------------|------------2-4-5-------|
|----------------------------|------------------------|
|
| Gtr II
|                                      ~  PM--------|
| E E E  S S S S S S S S S S   S S S S Q  S S E S S E
|----------------------------|------------------------|
|----------------------------|------------------------|
|----------------------------|------------------------|
|----------------------------|------------------0-3-4-|
|-1-1-1----------------------|------------2-4-5-------|
|--------2-2-2-2-2-2-1-1-1-1-|-5-5-5-5-1--------------|


  S S S S S S S S S S S S E E    H         Q  Q
|-----------------------------|------------------|
|-----------------------------|------------------|
|-----------------------------|------------------|
|-----------------------------|------------------|
|-2-2-2-2-2-2-----------------|-/4b5-------0-----|
|-------------2-2-2-2-2-2-1-1-|-/4b5-------0-----|
|
| S S S S S S S S S S S S E E    E   Q.    Q  Q
|-----------------------------|------------------|
|-----------------------------|------------------|
|-----------------------------|------------------|
|-----------------------------|------------------|
|-2-2-2-2-2-2-----------------|--1s==4b5---0-----|
|-------------2-2-2-2-2-2-1-1-|--1s==4b5---0-----|


  Gtrs I, II
                                            ~  PM--------|
  S S S S S S S S S S S S S S S S   S S S S Q  S S E S S E
|---------------------------------|------------------------|
|---------------------------------|------------------------|
|---------------------------------|------------------------|
|---------------------------------|------------------0-3-4-|
|-1-1-1-1-1-1---------------------|------------2-4-5-------|
|-------------2-2-2-2-2-2-1-1-1-1-|-5-5-5-5-1--------------|


  S S S S S S S S S S S S E E   E Q.    Q  Q
|-----------------------------|----------------|
|-----------------------------|----------------|
|-----------------------------|----------------|
|-----------------------------|----------------|
|-2-2-2-2-2-2-----------------|-1s4b5---0------|
|-------------2-2-2-2-2-2-1-1-|-1s4b5---0------|


 Riff 8 (1:59)
  Gtrs I, II
  PM--------------------------------|   PM    PM--|
  S S S S S S S S S S S S S S S S   E E E E E S S E E
|---------------------------------|-------------------|
|---------------------------------|-------------------|
|---------------------------------|-------5-----------|
|---------------------------------|-4-7-3---7-0-0---5-|
|-0-0-0-0-0-0-0-0-0-0-0-0-0-0-0-0-|---------------3---|
|---------------------------------|-------------------|


                               5/4
                                        PM------------|
                                        |-3-| |-3-| |-3-|
  E S S E S S S S S S S S S S   S S S S E E E E E E E E E +E  E
|-----------------------------|---------------------------------|
|-----------------------------|---------------------------------|
|-----------------------------|---------------------------------|
|-----------------------------|---------------------0-3-7-(7)---|
|-----------------------------|---------------0-3-7-------------|
|-7-7-7-7-6-6-6-6-6-6-2-2-2-2-|-6-6-6-6-0-2-6-------------------|


   4/4
    Gtrs I, II
                                              ~  PM--------|
    S S S S S S S S S S S S S S S S   S S S S Q  S S E S S E
||----------------------------------|------------------------|
||o---------------------------------|------------------------|
||----------------------------------|------------------------|
||----------------------------------|------------------0-3-4-|
||o-1-1-1-1-1-1---------------------|------------2-4-5-------|
||--------------2-2-2-2-2-2-1-1-1-1-|-5-5-5-5-1--------------|


  S S S S S S S S S S S S E E   E Q.    Q  Q     4x
|-----------------------------|------------------||
|-----------------------------|-----------------o||
|-----------------------------|------------------||
|-----------------------------|------------------||
|-2-2-2-2-2-2-----------------|-1s4b5---0-------o||
|-------------2-2-2-2-2-2-1-1-|-1s4b5---0--------||


 Riff 9 (2:20)
  Gtrs I, II
                         PM--------------------|
                         |-3-| |-3-| |-3-| |-3-|
  H    H      W          E E E E E E E E E E E E   H    H
|-----------|----------|-------------------------|-----------|
|-----------|----------|-------------------------|-----------|
|-----------|----------|-------------------------|-----------|
|-----------|----------|-------------------4-5-7-|-7---------|
|-0----0----|-1--------|-0-3-5-7-5-0-3-5-6-------|-5----1----|
|-0----2----|-3--------|-------------------------|------1----|


  Gtrs I, II
                        PM--------|               PM--------|
                        |-3-| |-3-| |-3-| |-3-|   |-3-| |-3-| |-3-| |-3-|
  W          W          E E E E E E E E E E E E   E E E E E E E E E E E E
|----------|----------|-------------------------|-------------------------|-|
|----------|----------|-------------------------|-------------------------|-|
|----------|----------|-------------------------|-------------------------|-|
|-5--------|----------|-------------------4h5h7-|-----------------4-5h7h8-|-|
|-3--------|-1--------|-------------3h5h6-------|-------------5-6---------|-|
|-5--------|-1--------|-0-0-0-0-0-0-------------|-0-0-0-0-0-0-------------|-|


  Gtrs I, II
  PM--------|
  |-3-| |-3-| |-3-| |-3-|
  E E E E E E E E E E E E   H    H
|-------------------------|-----------|
|-------------------------|-----------|
|-------------------------|-----------|
|-------------------4h5h7-|-5----8----|
|-------------3h5h6-------|-3----6----|
|-0-0-0-0-0-0-------------|-----------|


      PM----|               PM--------|
  |-3-| |-3-| |-3-| |-3-|   |-3-| |-3-| |-3-| |-3-|
  E E E E E E E E E E E E   E E E E E E E E E E E E
|-------------------------|-------------------------|
|-------------------------|-------------------------|
|-------------------------|-------------------------|
|-------------------4h5h7-|-----------------4-5h7h8-|
|-1p0---------3h5h6-------|-------------5-6---------|
|-----0-0-0-0-------------|-0-0-0-0-0-0-------------|


  Gtrs I, II
                   PM--------|
                   |-3-| |-3-|
  H    H      H    E E E E E E   H    H      W
|-----------|------------------|-----------|------|
|-----------|------------------|-----------|------|
|-----------|------------------|-----------|------|
|-0----1----|------------------|-----------|------|
|-0----1----|-1----------------|-0----0----|-1----|
|-----------|-1----0-1-3-4-3-1-|-0----2----|-3----|


  Gtrs I, II
  PM--------------------|
  |-3-| |-3-| |-3-| |-3-|
  E E E E E E E E E E E E   H    H      W          W
|-------------------------|-----------|----------|------|
|-------------------------|-----------|----------|------|
|-------------------------|-----------|----------|------|
|-------------------4-5-7-|-7---------|-5--------|------|
|-0-3-5-7-5-0-3-5-6-------|-5----1----|-3--------|-1----|
|-------------------------|------1----|-5--------|-1----|


   Riff 10 (2:41)
    Gtrs I, II
    PM                 PM                   PM
    Q  S S S S S S S S Q    S S S S S S S S Q  S S S S
||------------------------|----------------------------|
||o-----------------------|----------------------------|
||------------------------|----------------------------|
||------------------------|----------------------------|
||o-0--5-5-5-5-8-8-8-8-0--|-8-8-8-8-7-7-7-7-0--7-7-7-7-|
||--0------------------0--|-----------------0----------|


                PM|                     PM--|
  S S S S S S E E E  S  S  S  S    S  S E E E S S S S S S S S
|-------------------------------|--------------------------------|
|-------------------------------|--------------------------------|
|-------------------------------|--------------------------------|
|-8-8-8-8-8-8-7-----10-10-10-10-|-10-10--------------------------|
|---------------8-7-------------|-------5-8-7-8-8-8-8-8-8-8-8----|
|-------------------------------|--------------------------------|


  Gtrs I, II
  PM                 PM                   PM
  Q  S S S S S S S S Q    S S S S S S S S E E E E
|-----------------------|-------------------------|
|-----------------------|-------------------------|
|-----------------------|-------------------------|
|-----------------------|-------------------0h7p0-|
|-0--3-3-3-3-7-7-7-7-0--|-7-7-7-7-5-5-5-5---------|
|-0------------------0--|-----------------0-------|


  E E E E S S E E E   E E E E E E E E  4x
|-------------------|------------------||
|-------------------|-----------------o||
|-------------------|------------------||
|-----7p0-5-5p0-3p0-|-2h3p2p0-2h3p2----||
|-5p0---------------|---------2h3p2---o||
|-------------------|---------------0--||


 Riff 11 (3:13)
  Gtrs I, II
  H.      Q    +H     H      +W           +W
|------------|-------------|------------|------------|
|------------|-------------|------------|------------|
|------------|-------------|------------|------------|
|------------|-------------|------------|------------|
|-0-------0--|-(0)----1----|-(1)--------|-(1)--------|
|-0-------2--|-(2)----3----|-(3)--------|-(3)--------|


  H.      Q    +H     H      +W           +W
|------------|-------------|------------|--------|
|------------|-------------|------------|--------|
|------------|-------------|------------|--------|
|------------|-------------|------------|--------|
|-0-------1--|-(1)----0----|-(0)--------|-(0)----|
|-2-------3--|-(3)----0----|-(0)--------|-(0)----|


   Riff 2a (3:22)
    Gtrs I, II
    PM------|      PM----|       PM-------
    S S S S E E Q  E E   E E E E E E E E
||---------------------|-----------------|
||o--------------------|-----------------|
||---------------------|-----------------|
||--------------0------|---6-------------|
||o-------------0------|-4---4p0---------|
||--0-0-0-0-0---0--0-0-|---------5-4-1-0-|


 ---------|      PM|         PM--| ~
  S S S S E E Q  E E   E E E E E E Q
|--------------------|------------------||
|--------------------|-----------------o||
|--------------------|------------------||
|-------------0------|-6----------------||
|-------------0------|---4p0-------5---o||
|-0-0-0-0-0---0--0-0-|-------5-4-0------||


  Gtrs I, II
  PM------|   PM------|       PM--|     PM---
  S S S S E E S S S S E E   E E E E E E E E
|-------------------------|-----------------|
|-------------------------|-----------------|
|-------------------------|-----------------|
|-------------------------|---------3p0-----|
|-------------------------|-------5---------|
|-0-0-0-0-0---0-0-0-0-0---|-0-3-6-------6-3-|


 ---------|   PM------|         PM--|   PM~
  S S S S E E S S S S E E   E E E E E E E E
|-------------------------|------------------|
|-------------------------|------------------|
|-------------------------|------------------|
|-------------------------|-3p0--------------|
|-------------------------|------------------|
|-0-0-0-0-0---0-0-0-0-0---|-----6-3-0-5-0-1--|


  Gtrs I, II
  PM------|   PM------|       PM--|     PM---
  S S S S E E S S S S E E   E E E E E E E E
|-------------------------|-----------------|
|-------------------------|-----------------|
|-------------------------|-----------------|
|-------------------------|---------3p0-----|
|-------------------------|-------5---------|
|-0-0-0-0-0---0-0-0-0-0---|-0-3-6-------6-3-|


 ---------|   PM------|         PM--|   PM|
  S S S S E E S S S S E E   E E E E E E E E
|-------------------------|------------------|
|-------------------------|------------------|
|-------------------------|------------------|
|-------------------------|-3p0--------------|
|-------------------------|------------------|
|-0-0-0-0-0---0-0-0-0-0---|-----6-3-0-5-0-1--|


   4/4
    Gtrs I, II
    PM------|    PM--------|                     PM|           PM|
    S S E E E Q  S S S S   E E Q  Q  Q    E Q.   E E Q    +Q   E E H
||-----------------------|--------------|---------------|---------------|
||o----------------------|--------------|---------------|---------------|
||-----------------------|--------------|---------------|---------------|
||-----------------------|-----5--8--7--|---------------|---------------|
||o---------6-5----------|-----3--6--5--|-4s5----4-0-4--|-(4)--1-0-1----|
||--7-7-5-4------0-0-0-0-|-0------------|-4s5----4-0-4--|-(4)--1-0-1----|


  Gtrs I, II
  PM------|    PM--------|                PM  PM  PM  PM
  S S E E E Q  S S S S   E E Q  Q  Q    E E E E E E E E
|----------------------|--------------|-----------------|
|----------------------|--------------|-----------------|
|----------------------|--------------|-----------------|
|----------------------|-----5--8--7--|-5-1-4-0-8-4-7-4-|
|---------6-5----------|-----3--6--5--|-----------------|
|-7-7-5-4------0-0-0-0-|-0------------|-----------------|


      PM|   PM--|       PM--|   PM|
  E E E E E E E E     E E E E E E E E   +E  H..
|------------------||-----------------|------------*|
|-----------------o||-----------------|------------*|
|------------------||-----------------|------------*|
|-8p7-5-4-7-4-5----||-5-4-----4-----5-|-(5)--------*|
|---------------6-o||-----6-5---6-5-3-|-(3)--------*|
|------------------||-----------------|------------*|

End.
comments
We did not receive enough feedback on this tab! Please rate:
1 2 3 4 5
I want to post or [tab]
guest
You may want to rate the tab now too:
select rating
Please do not post tabs as comments. Select "correction" instead!