Oops, an error
Loading. Please wait.

Cleansing A Misguided Path Tab

ver1
ver1

Whole song

Interactive

More versions @911Tabs.com
45 views 3 this week
no commentswrite comment
1 2 3 4 5
please rate
Autoscroll
+/-
esc
set tempo
stop
Contributor
Hey! There's an official Ultimate Guitar app which is ideal
for learning songs when you're away from computer. Get the app
WARNING: You are trying to view
                                    content from Ultimate-Guitar.com
                                    in an unauthorized application,
                                    which is prohibited.

                                    Please use an official Ultimate
                                    Guitar Tabs application for iPhone,
                                    iPad or Android to access legitimate
                                    chords, guitar, bass, and drum tabs
                                    from Ultimate-Guitar.com database.

                                    Type "ultimate guitar tabs" in Apple
                                    App Store's or Android Market's
                                    search to find the application.
Psycroptic - 'Cleansing A Misguided Path'
Symbols Of Failure (2006)
Neurotic Records



________________________________________________________________________________

Gtr I (D A D G B E) - 'Joe Haley'
Gtr II (D A D G B E) - 'Joe Haley'
Gtr III (D A D G B E) - 'Joe Haley'
Gtr IV (D A D G B E) - 'Joe Haley'


 Riff 1 (0:00)
  Q=230
 4/4
  Gtrs I, II
    PM  PM|   PM    PM|    PM----|
  E E E E E E E E   E E Q  S S S S E E
|-----------------|--------------------|
|-----------------|--------------------|
|-----------------|--------------------|
|-----------------|--------------------|
|-5---5-----4---4-|-----1--------------|
|---8---8-0---8---|-5-0-1--1-1-1-1-1---|


   Riff 2 (0:02)
    Gtrs I, II
                            PM----|             PM----|
    S S S S S S S S S S S S E E   E S S S S S S S S S S E E
||------------------------------|---------------------------|
||o-----------------------------|---------------------------|
||------------------------------|---------------------------|
||------------------4-4-4-4-----|---------------------------|
||o-----------------------------|---4-4-4-4-4-4-------------|
||--4-4-4-4-4-4-4-4---------0-4-|-5-------------8-8-8-8-8h9-|


          PM  PM|
  E E E E E E E E   E E E E E E  Q
|-----------------|------------------|
|-----------------|------------------|
|-----------------|------------------|
|-----------------|------------------|
|-------5---4-----|------------------|
|-0-4-5---8---8-0-|-8h9-0-7h8-0-[9]--|


  1.
                          PM----|     PM    ~
  S S S S S S S S S S S S E E   E E E E E E Q
|-----------------------------|----------------|
|-----------------------------|----------------|
|-----------------------------|----------------|
|-----------------4-4-4-4-----|----------------|
|-----------------------------|---4p0---4p0----|
|-4-4-4-4-4-4-4-4---------0-4-|-5-----5-----8--|


        PM
  E E E E E E E E   E E E E E E E E
|-----------------|------------------||
|-----------------|-----------------o||
|-----------------|------------------||
|-------4---5-----|------------------||
|-0h4h8---8---9p0-|-4p0-------4-----o||
|-----------------|-----7-4-0---1p0--||


  2.
                          PM----|     PM    ~
  S S S S S S S S S S S S E E   E E E E E E Q
|-----------------------------|----------------|
|-----------------------------|----------------|
|-----------------------------|----------------|
|-----------------4-4-4-4-----|----------------|
|-----------------------------|---4p0---4p0----|
|-4-4-4-4-4-4-4-4---------0-4-|-5-----5-----8--|


        PM    PM      PM  PM|
  E E E E E E E E   E E E E E E Q
|-----------------|----------------|
|-----------------|----------------|
|-----------------|----------------|
|-------4---5-----|-4---4-----6S3--|
|-0h4h8---8---9-0-|---8---8-0-4S1--|
|-----------------|----------------|


 Riff 3 (0:19)
  Gtrs I, II
  PM------------|   PM|
  S S S S S S S S E S S E E     W
|-----------------------------|-----------------------------|
|-----------------------------|-----------------------------|
|-----------------------------|-----------------------------|
|-----------------------------|-----------------------------|
|-----------------------------|-----------------------------|
|-1-1-1-1-1-1-1-1-5-1-1-4-----|-----------------------------|
|
| Gtr III
| PM------------|   PM|   PM------|   PM----|   PM--------|
| S S S S S S S S E S S E S S   S S E S S S S E S S S S S S
|-----------------------------|-----------------------------|
|-----------------------------|-----------------------------|
|-----------------------------|-----------------------------|
|-----------------------------|-----------------------------|
|-----------------------------|-----------------------------|
|-1-1-1-1-1-1-1-1-5-1-1-4-1-1-|-1-1-4-1-1-1-1-5-1-1-1-1-1-1-|


                                              PM|
  W                           H             E E E E
|---------------------------|--------------------------|
|---------------------------|--------------------------|
|---------------------------|--------------------------|
|---------------------------|--------------------------|
|---------------------------|---------------------1----|
|---------------------------|---------------1-4-5------|
|
|   PM|   PM----|   PM----|     PM--------|   PM|
| E S S E S S S S E S S S S   E S S S S S S E E E E
|---------------------------|--------------------------|
|---------------------------|--------------------------|
|---------------------------|--------------------------|
|---------------------------|--------------------------|
|---------------------------|---------------------1----|
|-5-1-1-4-1-1-1-1-4-1-1-1-1-|-5-1-1-1-1-1-1-1-4-5------|


  Gtrs I, II
  E S S S S S S E E E E   S S E E E E E E E
|-----------------------|-------------------|
|-----------------------|-------------------|
|-----------------------|-------------------|
|-----------------------|-------------------|
|-----------------------|-------------------|
|-0-0-0-0-0-0-0-8-0-8-7-|-0-0-0-8-0-5-0-0-0-|
|
| Gtr II
| E S S S S S S E E E E   S S E E E E E E E
|-----------------------|-------------------|
|-----------------------|-------------------|
|-----------------------|-------------------|
|-----------------------|-------------------|
|-----------------------|-------------------|
|-0-0-0-0-0-0-0-8-0-8-7-|-0-0-0-8-0-5-0-0-0-|


                              PM
  E E E E E E E E   E E E E E E  E   E
|-----------------|---------------------|
|-----------------|---------------------|
|-----------------|---------------------|
|-----------------|-------------[5]S[4]-|
|---------1-0-----|-------4-7-4---------|
|-8-7-5p0-----4p0-|-0h4h5---------------|
|
|                             PM
| E E E E E E E E   E E E E E E  E   E
|-----------------|---------------------|
|-----------------|---------------------|
|-----------------|---------------------|
|-----------------|---------------------|
|---------1-0-----|-------4-7-4---------|
|-8-7-5p0-----4p0-|-0h4h5-------[5]S[4]-|


 4/4
  Gtrs I, II
  PM------------|   PM|   PM------|   PM----|   PM--------|
  S S S S S S S S E S S E S S   S S E S S S S E S S S S S S
|-----------------------------|-----------------------------|
|-----------------------------|-----------------------------|
|-----------------------------|-----------------------------|
|-----------------------------|-----------------------------|
|-----------------------------|-----------------------------|
|-1-1-1-1-1-1-1-1-5-1-1-4-1-1-|-1-1-4-1-1-1-1-5-1-1-1-1-1-1-|


    PM|   PM----|   PM----|     PM--------|   PM|
  E S S E S S S S E S S S S   E S S S S S S E E E E
|---------------------------|--------------------------|
|---------------------------|--------------------------|
|---------------------------|--------------------------|
|---------------------------|--------------------------|
|---------------------------|---------------------1----|
|-5-1-1-4-1-1-1-1-4-1-1-1-1-|-5-1-1-1-1-1-1-1-4-5------|


  Gtrs I, II
  PM------------|   PM        PM  PM
  S S S S S S S S E E E E   E E E E E E E E
|-------------------------|-----------------|
|-------------------------|-----------------|
|-------------------------|-----------------|
|-------------------------|-----------------|
|-------------------------|-----------------|
|-0-0-0-0-0-0-0-0-8-0-8-7-|-0-0-8-0-5-0-0-0-|


    PM  PM|   PM    PM|    PM----|
  E E E E E E E E   E E Q  S S S S E E
|-----------------|--------------------|
|-----------------|--------------------|
|-----------------|--------------------|
|-----------------|--------------------|
|-5---5-----4---4-|-----1--------------|
|---8---8-0---8---|-1-0-1--1-1-1-1-1---|


   Riff 2a (0:35)
    Gtrs I, II
                            PM----|             PM----| ~
    S S S S S S S S S S S S E E   E S S S S S S S S S S Q
||------------------------------|--------------------------|
||o-----------------------------|--------------------------|
||------------------------------|--------------------------|
||------------------4-4-4-4-----|--------------------------|
||o-----------------------------|---4-4-4-4-4-4------------|
||--4-4-4-4-4-4-4-4---------0-4-|-5-------------8-8-8-8-8--|


          PM  PM|
  E E E E E E E E   E E E E E E  Q
|-----------------|------------------|
|-----------------|------------------|
|-----------------|------------------|
|-----------------|------------------|
|-------5---4-----|------------------|
|-0-4-5---8---8-0-|-8h9-0-7h8-0-[9]--|


  1.
  Gtrs I, II
  PM----|       PM----|     PM    ~          PM
  E E E E S S E E E   E E E E E E Q    E E E E E E E E   E E E E E E E E
|-------------------|----------------|-----------------|-------------------||
|-------------------|----------------|-----------------|------------------o||
|-------------------|----------------|-----------------|-------------------||
|---------4-4-4-----|----------------|-------4---5-----|-------------------||
|-------------------|---4p0---4p0----|-0h4h8---8---9p0-|-4p0-------4------o||
|-4-4-4-4-------0-4-|-5-----5-----8--|-----------------|-----7-4-0---1p0---||


  2.
  Gtrs I, II
  PM----|       PM----|     PM    ~          PM    PM      PM  PM|
  E E E E S S E E E   E E E E E E Q    E E E E E E E E   E E E E E Q.
|-------------------|----------------|-----------------|-----------------|
|-------------------|----------------|-----------------|-----------------|
|-------------------|----------------|-----------------|-----------------|
|---------4-4-4-----|----------------|-------4---5-----|-4---4-----3-----|
|-------------------|---4p0---4p0----|-0h4h8---8---9-0-|---8---8-0-1-----|
|-4-4-4-4-------0-4-|-5-----5-----8--|-----------------|-----------------|


   Riff 4 (0:52)
    Gtrs I, II
    PM------------|   PM~~~~~~~~~ PM|   PM~~~~
    S S S S S S S S E E Q    +Q   E E E E Q
||-------------------------|-----------------|
||o------------------------|-----------------|
||-------------------------|-----------------|
||-------------------------|-----------------|
||o------------------------|-----------------|
||--0-0-0-0-0-0-0-0-8-0-7--|-(7)--0-0-5-0-4--|


 ~~~~~ PM|     PM|           PM|     PM|
  +Q   E E E E E E    E   E  E E E E E E
|------------------|----------------------|
|------------------|----------------------|
|------------------|----------------------|
|------------------|----------------------|
|----------3S5-----|-[5]S[6]--------------|
|-(4)--0-0-----0-0-|---------0-0-8-7-0-0--|


  1.
  Gtrs I, II
  PM--------|     ~~~~~~~~~~~~~         ~
  S S E S S E E E Q        +Q   E E E E Q
|------------------------|-----------------|
|------------------------|-----------------|
|------------------------|-----------------|
|------------------------|-----------------|
|------------------------|-----------------|
|-0-0-0-0-0-0-8-0-7b7.5r=|=(7)--0-0-5-0-4--|


  PM----------------------------|     PM--------|     PM------|
  S S S S S S S S S S S S S S S S   E S S S S S S E S S S S S S
|---------------------------------|---------------------------------||
|---------------------------------|--------------------------------o||
|---------------------------------|---------------------------------||
|---------------------------------|---------------------------------||
|---------------------------------|--------------------------------o||
|-1-1-1-1-1-1-1-1-1-1-1-1-1-1-1-1-|-5-1-1-1-1-1-1-4p1-1-1-1-1-1-----||


  2.
  Gtrs I, II
  PM--------|     ~~~~~~~~~~~~~         ~
  S S E S S E E E Q        +Q   E E E E Q
|------------------------|-----------------|
|------------------------|-----------------|
|------------------------|-----------------|
|------------------------|-----------------|
|------------------------|-----------------|
|-0-0-0-0-0-0-8-0-7b7.5r=|=(7)--0-0-5-0-4--|


  PM------------------------------------------------------| ~
  S S S S S S S S S S S S S S S S   S S S S S S S S S S S S Q
|---------------------------------|------------------------------|
|---------------------------------|------------------------------|
|---------------------------------|------------------------------|
|-----------------8-8-8-8-7-7-7-7-|------------------------------|
|-5-5-5-5-6-6-6-6-----------------|-6-6-6-6-6-6-6-6-5-5-5-5-5----|
|---------------------------------|------------------------------|


  Gtr I
             ~~~~~~~
  W          H    H
|----------|-----------|
|----------|-----------|
|----------|-----------|
|----------|-----------|
|-0--------|-----------|
|-0--------|-8----7----|
|
| Gtr II
|                 ~
| W          H    H
|----------|-----------|
|----------|-----------|
|----------|-----------|
|----------|-8---------|
|-0--------|-0---------|
|-0--------|------7----|


 Riff 5 (1:11)
  Gtrs I, II
  PM--------------|   PM-------------------------------------
  S S S S S S S S E E S S S S   S S S S E E S S S S S S S S
|-----------------------------|-----------------------------|
|-----------------------------|-----------------------------|
|-----------------------------|-----------------------------|
|-----------------------------|-----------------------------|
|-----------------------------|-----------------------------|
|-4-4-4-4-4-4-4-4-4---4-4-4-4-|-4-4-4-4-4---4-4-4-4-4-4-4-4-|


 -----------|                         ~
  E E S S S S E E E E    E E E  E E E Q
|---------------------|-------------------|
|---------------------|-------------------|
|---------------------|-------------------|
|---------------------|-------------------|
|---------------------|-10p0-9------------|
|-4---4-4-4-4-4p0h4-5-|--------10p7-0-1---|


  Gtrs I, II
  PM--------------|   PM-------------------------------------
  S S S S S S S S E E S S S S   S S S S E E S S S S S S S S
|-----------------------------|-----------------------------|
|-----------------------------|-----------------------------|
|-----------------------------|-----------------------------|
|-----------------------------|-----------------------------|
|-----------------------------|-----------------------------|
|-4-4-4-4-4-4-4-4-4---4-4-4-4-|-4-4-4-4-4---1-1-1-1-1-1-1-1-|


 -|   PM----|                      ~~~
  E E S S S S E E E E   E E E E E  Q.
|---------------------|------------------|
|---------------------|------------------|
|---------------------|------------------|
|---------------------|------------------|
|---------------------|-7-------8--------|
|-1---5-5-5-5-5p0-4h5-|---0-4-5---[8]----|


 Riff 6 (1:19)
  Gtrs I, II
   E E E E E E E E    E   E  E E E E E E
|------------------|---------------------|
|------------------|---------------------|
|------------------|---------------------|
|----------3-------|---------------------|
|------------------|-[5]S[6]---3-5-------|
|-10p0-6p0---6p3-0-|---------0-----6p0h3-|


   E E E E E E E E    E   E  E E E E E E
|------------------|---------------------|
|------------------|---------------------|
|------------------|---------------------|
|----------3-------|---------------------|
|------------------|-[5]S[6]---3-5-------|
|-10p0-6p0---6p3-0-|---------0-----6p0h3-|


  Gtrs I, II
  E  E E E E E E E   E E E E E E E E   E  E E E E E E E   E E E E E E E E
|------------------|-----------------|------------------|-----------------|
|------------------|-----------------|------------------|-----------------|
|------------------|-----------------|------------------|-----------------|
|----------3-------|-----------------|----------3-------|-----------------|
|------------------|-5---------------|------------------|-5---------------|
|-6h10-0h6---6p3p0-|---0h3h6-0h3h6-0-|-6h10-0h6---6p3p0-|---0h3h6-0h3h6-0-|


    Gtrs I, II
    PM--------------|   PM-------------------------------------
    S S S S S S S S E E S S S S   S S S S E E S S S S S S S S
||------------------------------|-----------------------------|
||o-----------------------------|-----------------------------|
||------------------------------|-----------------------------|
||------------------------------|-----------------------------|
||o-----------------------------|-----------------------------|
||--4-4-4-4-4-4-4-4-4---4-4-4-4-|-4-4-4-4-4---4-4-4-4-4-4-4-4-|


 -----------|                          ~~~
  E E S S S S E E E E    E E E  E E E  Q
|---------------------|---------------------|
|---------------------|---------------------|
|---------------------|---------------------|
|---------------------|---------------------|
|---------------------|-10p0-9--------------|
|-4---4-4-4-4-4p0h4-5-|--------10p7-0-[1]---|


  Gtrs I, II
  PM--------------|   PM-------------------------------------
  S S S S S S S S E E S S S S   S S S S E E S S S S S S S S
|-----------------------------|-----------------------------|
|-----------------------------|-----------------------------|
|-----------------------------|-----------------------------|
|-----------------------------|-----------------------------|
|-----------------------------|-----------------------------|
|-4-4-4-4-4-4-4-4-4---4-4-4-4-|-4-4-4-4-4---1-1-1-1-1-1-1-1-|


 -|   PM----|                      ~~~
  E E S S S S E E E E   E E E E E  Q.
|---------------------|-------------------||
|---------------------|------------------o||
|---------------------|-------------------||
|---------------------|-------------------||
|---------------------|-7-------8--------o||
|-1---5-5-5-5-5p0-4h5-|---0-4-5---[8]-----||


    Gtrs I, II
     E E E E E E E E    E   E  E E E E E E
||-------------------|---------------------|
||o------------------|---------------------|
||-------------------|---------------------|
||-----------3-------|---------------------|
||o------------------|-[5]S[6]---3-5-------|
||--10p0-6p0---6p3-0-|---------0-----6p0h3-|


   E E E E E E E E    E   E  E E E E E E
|------------------|----------------------|
|------------------|----------------------|
|------------------|----------------------|
|----------3-------|----------------------|
|------------------|-[5]S[6]---3-5--------|
|-10p0-6p0---6p3-0-|---------0-----6p0h3--|


  Gtrs I, II
  E  E E E E E E E   E E E E E E E E   E  E E E E E E E   E E E E E E E E
|------------------|-----------------|------------------|------------------||
|------------------|-----------------|------------------|-----------------o||
|------------------|-----------------|------------------|------------------||
|----------3-------|-----------------|----------3-------|------------------||
|------------------|-5---------------|------------------|-5---------------o||
|-6h10-0h6---6p3p0-|---0h3h6-0h3h6-0-|-6h10-0h6---6p3p0-|---0h3h6-0h3h6-0--||


  Gtrs I, II
    PM  PM|   PM    PM|    PM----|
  E E E E E E E E   E E Q  S S S S E E
|-----------------|--------------------|
|-----------------|--------------------|
|-----------------|--------------------|
|-----------------|--------------------|
|-5---5-----4---4-|-1---1--------------|
|---8---8-0---8---|---0-1--1-1-1-1-1---|


 Riff 2b (2:03)
  Gtr I
                          PM----|             PM----| ~
  S S S S S S S S S S S S E E   E S S S S S S S S S S Q
|-----------------------------|--------------------------|
|-----------------------------|--------------------------|
|-----------------------------|--------------------------|
|-----------------4-4-4-4-----|--------------------------|
|-----------------------------|---4-4-4-4-4-4------------|
|-4-4-4-4-4-4-4-4---------0-4-|-5-------------8-8-8-8-8--|
|
| Gtr II
| W                             W
|-----------------------------|--------------------------|
|-----------------------------|--------------------------|
|-----------------------------|--------------------------|
|-----------------------------|--------------------------|
|-----------------------------|--------------------------|
|-----------------------------|--------------------------|


          PM  PM|
  E E E E E E E E   E E E E E E  Q
|-----------------|-------------------|
|-----------------|-------------------|
|-----------------|-------------------|
|-----------------|-------------------|
|-------5---4-----|-------------------|
|-0-4-5---8---8-0-|-8h9-0-7h8-0-[9]---|
|
|         PM  PM|
| E E E E E E E E   E E E E E E  Q
|-----------------|-------------------|
|-----------------|-------------------|
|-----------------|-------------------|
|-----------------|-------------------|
|-------5---4-----|-------------------|
|-0-4-5---8---8-0-|-8h9-0-7h8-0-[9]---|


  Gtrs I, II
                          PM----|     PM    ~
  S S S S S S S S S S S S E E   E E E E E E Q
|-----------------------------|----------------|
|-----------------------------|----------------|
|-----------------------------|----------------|
|-----------------4-4-4-4-----|----------------|
|-----------------------------|---4p0---4p0----|
|-4-4-4-4-4-4-4-4---------0-4-|-5-----5-----8--|


        PM
  E E E E E E E E   E E E E E E E E
|-----------------|-----------------|
|-----------------|-----------------|
|-----------------|-----------------|
|-------4---5-----|-----------------|
|-0h4h8---8---9p0-|-4p0-------4-----|
|-----------------|-----7-4-0---1p0-|


  Gtrs I, II
                          PM----|             PM----| ~
  S S S S S S S S S S S S E E   E S S S S S S S S S S Q
|-----------------------------|--------------------------|
|-----------------------------|--------------------------|
|-----------------------------|--------------------------|
|-----------------4-4-4-4-----|--------------------------|
|-----------------------------|---4-4-4-4-4-4------------|
|-4-4-4-4-4-4-4-4---------0-4-|-5-------------8-8-8-8-8--|


          PM  PM|
  E E E E E E E E   E E E E E E  Q
|-----------------|-------------------|
|-----------------|-------------------|
|-----------------|-------------------|
|-----------------|-------------------|
|-------5---4-----|-------------------|
|-0-4-5---8---8-0-|-8h9-0-7h8-0-[9]---|


  Gtrs I, II
                          PM----|     PM    ~
  S S S S S S S S S S S S E E   E E E E E E Q
|-----------------------------|----------------|
|-----------------------------|----------------|
|-----------------------------|----------------|
|-----------------4-4-4-4-----|----------------|
|-----------------------------|---4p0---4p0----|
|-4-4-4-4-4-4-4-4---------0-4-|-5-----5-----8--|


        PM    PM      PM  PM| ~~
  E E E E E E E E   E E E E E Q.
|-----------------|----------------|
|-----------------|----------------|
|-----------------|----------------|
|-------4---5-----|-4---4-----3----|
|-0h4h8---8---9-0-|---8---8-0-1----|
|-----------------|----------------|


 Riff 3a (2:20)
  Gtrs I, II
  PM------------|   PM|
  S S S S S S S S E S S E E     W
|-----------------------------|-----------------------------|
|-----------------------------|-----------------------------|
|-----------------------------|-----------------------------|
|-----------------------------|-----------------------------|
|-----------------------------|-----------------------------|
|-1-1-1-1-1-1-1-1-5-1-1-4-----|-----------------------------|
|
| Gtr III
| PM------------|   PM|   PM------|   PM----|   PM--------|
| S S S S S S S S E S S E S S   S S E S S S S E S S S S S S
|-----------------------------|-----------------------------|
|-----------------------------|-----------------------------|
|-----------------------------|-----------------------------|
|-----------------------------|-----------------------------|
|-----------------------------|-----------------------------|
|-1-1-1-1-1-1-1-1-5-1-1-4-1-1-|-1-1-4-1-1-1-1-5-1-1-1-1-1-1-|


    PM|   PM----|   PM----|     PM--------|   PM|
  E S S E S S S S E S S S S   E S S S S S S E E E E
|---------------------------|--------------------------|
|---------------------------|--------------------------|
|---------------------------|--------------------------|
|---------------------------|--------------------------|
|---------------------------|---------------------1----|
|-5-1-1-4-1-1-1-1-4-1-1-1-1-|-5-1-1-1-1-1-1-1-4-5------|
|
|   PM|   PM----|   PM----|     PM--------|   PM|
| E S S E S S S S E S S S S   E S S S S S S E E E E
|---------------------------|--------------------------|
|---------------------------|--------------------------|
|---------------------------|--------------------------|
|---------------------------|--------------------------|
|---------------------------|---------------------1----|
|-5-1-1-4-1-1-1-1-4-1-1-1-1-|-5-1-1-1-1-1-1-1-4-5------|


  Gtrs I, II
  E S S S S S S E E E E   S S E E E E E E E
|-----------------------|-------------------|
|-----------------------|-------------------|
|-----------------------|-------------------|
|-----------------------|-------------------|
|-----------------------|-------------------|
|-0-0-0-0-0-0-0-8-0-8-7-|-0-0-0-8-0-5-0-0-0-|
|
| Gtr II
| E S S S S S S E E E E   S S E E E E E E E
|-----------------------|-------------------|
|-----------------------|-------------------|
|-----------------------|-------------------|
|-----------------------|-------------------|
|-----------------------|-------------------|
|-0-0-0-0-0-0-0-8-0-8-7-|-0-0-0-8-0-5-0-0-0-|


                              PM
  E E E E E E E E   E E E E E E  E   E
|-----------------|---------------------|
|-----------------|---------------------|
|-----------------|---------------------|
|-----------------|-------------[5]S[4]-|
|---------1-0-----|-------4-7-4---------|
|-8-7-5p0-----4p0-|-0h4h5---------------|
|
|                             PM
| E E E E E E E E   E E E E E E  E   E
|-----------------|---------------------|
|-----------------|---------------------|
|-----------------|---------------------|
|-----------------|---------------------|
|---------1-0-----|-------4-7-4---------|
|-8-7-5p0-----4p0-|-0h4h5-------[5]S[4]-|


   Riff 7 (2:28)
    Gtr I
                                                        PM
    W           H         H       +W           +H.      Q
||-----------|------------------|------------|--------------|
||o----------|------------------|------------|--------------|
||-----------|--6---------------|------------|--------------|
||-----------|--4---------4-----|-(4)--------|-(4)----------|
||o-4--------|-(4)--------0-----|-(0)--------|-(0)------4---|
||--4--------|-(4)--------------|------------|----------4---|
|
|   Gtr II
|                                                       PM
|   W           Q    Q    H       +W           +H.      Q
||-----------|------------------|------------|--------------|
||o----------|------------------|------------|--------------|
||-----------|--6---------------|------------|--------------|
||-----------|--4----4----------|------------|--------------|
||o-4--------|-(4)--------4-----|-(4)--------|-(4)------4---|
||--4--------|-(4)--(4)--(4)----|-(4)--------|-(4)------4---|


  Gtrs I, II
                                    PM---|        PM
  W          +H.      Q    Q  Q  Q  Q    Q  Q  Q  Q
|----------|-------------|-------------|--------------||
|----------|-------------|-------------|-------------o||
|----------|-------------|-------------|--------------||
|----------|-------------|-------6-----|----8--8------||
|-0--------|-(0)------7--|-7--6--4--0--|-0--6--6--0--o||
|-0--------|-(0)------7--|-7--6--6--0--|-0--8--8--0---||


 Riff 8 (2:45)
  Gtrs I, II
  PM--------|       PM--|       PM----------|
  |-3-| |-3-| |-3-| |-3-|   |-3-| |-3-| |-3-| |-3-|
  E E E E E E E E E E E E   E E E E E E E E E E E E
|-------------------------|-------------------------|
|-------------------------|-------------------------|
|-------------------------|-------------------------|
|-------------------------|-4h5---4-----------4h5h8-|
|-------------------4-5-8-|-----8---5-8-4-5-8-------|
|-4-4-4-4-4-4-4h5h8-------|-------------------------|


  Gtrs I, II
  PM--------|       PM--|       PM----------|
  |-3-| |-3-| |-3-| |-3-|   |-3-| |-3-| |-3-| |-3-|
  E E E E E E E E E E E E   E E E E E E E E E E E E
|-------------------------|-------------------------|
|-------------------------|-------------------------|
|-------------------------|-------------------------|
|-------------------------|-------------------4h5h8-|
|-------------------4-----|-4h5---4-----4-5-8-------|
|-4-4-4-4-4-4-4h5h8---5-8-|-----8---5-8-------------|


  Gtrs I, II
  PM--------|      PM----|         PM----|       PM|
  |-3-| |-3-| |-3--| |-3--|   |-3--| |-3--| |-3--| |-3--|
  E E E E E E E E  E E E  E   E E  E E E  E E E  E E E  E
|---------------------------|-----------------------------|
|---------------------------|-----------------------------|
|---------------------------|-----------------------------|
|---------------------------|---------------8h9----8------|
|-------------8h9----8------|--------8-9-12-----12---9h12-|
|-0-0-0-0-0-0-----12---9-12-|-8h9-12----------------------|


  Gtrs I, II
  PM--------|        PM----|         PM----|       ~~
  |-3-| |-3--|  |-3--| |-3--|   |-3--| |-3--| |-3--|
  E E E E E +E  E E  E E E  E   E E  E E E  E Q Q  Q
|-----------------------------|----------------------|
|-----------------------------|----------------------|
|-----------------------------|---------------8------|
|---------------8h9----8------|--------8-9-12---9-12-|
|-------------------12---9-12-|-8h9-12---------------|
|-0-0-0-0-0-(0)---------------|----------------------|


  Gtrs I, II
  PM--------|       PM--|       PM----------|
  |-3-| |-3-| |-3-| |-3-|   |-3-| |-3-| |-3-| |-3-|
  E E E E E E E E E E E E   E E E E E E E E E E E E
|-------------------------|-------------------------|
|-------------------------|-------------------------|
|-------------------------|-------------------------|
|-------------------------|-4h5---4-----------4h5h8-|
|-------------------4-5-8-|-----8---5-8-4-5-8-------|
|-4-4-4-4-4-4-4h5h8-------|-------------------------|


  Gtrs I, II
  PM--------|       PM--|
  |-3-| |-3-| |-3-| |-3-|   |-3-| |-3-| |-3-| |-3-|
  E E E E E E E E E E E E   E E E E E E E E E E E E
|-------------------------|-------------------------|
|-------------------------|-------------------------|
|-------------------------|-0h3h7-8p7p3-------------|
|-------------------------|-------------0h3h7-8p7p3-|
|-------------------4-5-8-|-------------------------|
|-4-4-4-4-4-4-4h5h8-------|-------------------------|


  Gtr I
       PM--|           ~~~~~~  PM--------|
       |-3-|   |-3-| |-3--|    |-3-| |-3-| |-3--| |-3--|
  H    Q Q Q   Q Q Q Q Q +Q    E E E E E E E E  E E E  E
|------------|---------------|---------------------------|
|------------|---------------|---------------------------|
|------------|-7-------------|---------------------------|
|------------|---8-4---------|--------------------0h8h12-|
|-0----0-0-0-|---------------|---------------------------|
|-0----0-0-0-|-------8-7-(7)-|-0-0-0-0-0-0-0h8h12--------|
|
| Gtr II
|      PM--|           ~~~~~~  PM--------|
|      |-3-|   |-3-| |-3--|    |-3-| |-3-| |-3--| |-3--|
| H    Q Q Q   Q Q Q Q Q +Q    E E E E E E E E  E E E  E
|------------|---------------|---------------------------|
|------------|---------------|---------------------------|
|------------|-7-------------|---------------------------|
|------------|---8-4-8-7-(7)-|--------------------0h8h12-|
|-0----0-0-0-|---------------|---------------------------|
|-0----0-0-0-|---------------|-0-0-0-0-0-0-0h8h12--------|


  |-3--| |--3--| |-3--|  |-3--|
  E E  E E  E  E E E  E  E  E E
|--------------------------------|
|--------------------------------|
|--------------------------------|
|----------------0h8h12h13p12p8--|
|-0h8h12-0h12h13-----------------|
|--------------------------------|
|
| |-3--| |--3--| |-3--|  |-3--|
| E E  E E  E  E E E  E  E  E E
|--------------------------------|
|--------------------------------|
|--------------------------------|
|----------------0h8h12h13p12p8--|
|-0h8h12-0h12h13-----------------|
|--------------------------------|


    Gtr I
                                                        PM
    W           H         H       +W           +H.      Q
||-----------|------------------|------------|--------------|
||o----------|------------------|------------|--------------|
||-----------|--6---------------|------------|--------------|
||-----------|--4---------4-----|-(4)--------|-(4)----------|
||o-4--------|-(4)--------0-----|-(0)--------|-(0)------4---|
||--4--------|-(4)--------------|------------|----------4---|
|
|   Gtr II
|                                                       PM
|   W           Q    Q    H       +W           +H.      Q
||-----------|------------------|------------|--------------|
||o----------|------------------|------------|--------------|
||-----------|--6---------------|------------|--------------|
||-----------|--4----4----------|------------|--------------|
||o-4--------|-(4)--------4-----|-(4)--------|-(4)------4---|
||--4--------|-(4)--(4)--(4)----|-(4)--------|-(4)------4---|


  Gtrs I, II
                                    PM---|        PM
  W          +H.      Q    Q  Q  Q  Q    Q  Q  Q  Q
|----------|-------------|-------------|--------------||
|----------|-------------|-------------|-------------o||
|----------|-------------|-------------|--------------||
|----------|-------------|-------6-----|----8--8------||
|-0--------|-(0)------7--|-7--6--4--0--|-0--6--6--0--o||
|-0--------|-(0)------7--|-7--6--6--0--|-0--8--8--0---||


   Riff 7a (3:18)
    Gtr I
                                                        PM
    W           Q    Q    H       +W           +H.      Q
||-----------|------------------|------------|--------------|
||o----------|------------------|------------|--------------|
||-----------|------------------|------------|--------------|
||-----------|------------4-----|-(4)--------|-(4)----------|
||o-4--------|-(4)---4----4-----|-(4)--------|-(4)------4---|
||--4--------|--7---------7-----|-(7)--------|-(7)------4---|
|
|   Gtr II
|                                                       PM
|   W           Q    Q    H       +W           +H.      Q
||-----------|------------------|------------|--------------|
||o----------|------------------|------------|--------------|
||-----------|--6---------------|------------|--------------|
||-----------|-------4----------|------------|--------------|
||o-4--------|-(4)--------4-----|-(4)--------|-(4)------4---|
||--4--------|-(4)--(4)--(4)----|-(4)--------|-(4)------4---|


  Gtrs I, II
                                              PM----|           PM
  W             +H.        Q     Q   Q   Q    Q       Q   Q  Q  Q
|-------------|---------------|-------------------|-----------------||
|-------------|---------------|-------------------|----------------o||
|-------------|---------------|-------------------|-----------------||
|-------------|---------------|----------6--------|-------8--8------||
|-0-----------|-(0)--------7--|--7---6---4----0---|---0---6--6--0--o||
|-0-----------|-(0)--------7--|--7---6---6----0---|---0---8--8--0---||
|
| Gtr IV
|                                                     >
| Q  Q  Q  Q     Q   Q  Q  Q     Q   Q   Q   +Q      +W
|-------------|---------------|-------------------|-----------------||
|-------------|---------------|-------------------|----------------o||
|-9--9--9--9--|--9---9--9--9--|-10--10--10--(10)--|-(10)------------||
|-------------|---------------|-------------------|-----------------||
|-------------|---------------|-------------------|----------------o||
|-------------|---------------|-------------------|-----------------||


 Riff 9 (3:35)
  Gtr I
  PM----------|   PM    PM                   ~~~~
  S S S S S S E E E  E  E    E   Q     E E E Q
|-------------------------|---------------------|
|-------------------------|---------------------|
|-------------------------|---------------------|
|-------------------------|---------------------|
|---------------8---[8]---|-[8]S[9]--------9----|
|-4-4-4-4-4-4-4---4-----4-|------------3S4---7--|
|
| Gtr II
| PM----------|   PM    PM
| S S S S S S E E E  E  E    E   E  H.
|-------------------------|---------------------|
|-------------------------|---------------------|
|-------------------------|---------------------|
|-------------------------|---------------------|
|---------------8----8----|--8S==9--------------|
|-4-4-4-4-4-4-4---4-----4-|---------------------|


 ~~~~~  PM|   PM--|
  +E  E E E E E E E   E E E E E E E E
|-------------------|------------------|
|-------------------|------------------|
|-------------------|------------------|
|-------------------|------------------|
|-----------8-------|-4p0-0------------|
|-(7)-4-4-4---4-4-0-|-------0-0h4-7-6--|
|
|  W                  W
|-------------------|------------------|
|-------------------|------------------|
|-------------------|------------------|
|-------------------|------------------|
|-------------------|------------------|
|-------------------|------------------|


  Gtr I
    PM--|   PM  PM          PM  PM----|
  E E E E E E E E    E   E  E E E E E E
|-----------------|---------------------|
|-----------------|---------------------|
|-----------------|---------------------|
|-----------------|---------------------|
|---------8---8---|-[8]S[9]---9---------|
|-0-0-0-0---0---0-|---------0---0-0-0-0-|
|
| Gtr II
|   PM--|   PM  PM          PM  PM----|
| E E E E E E E E    E   E  E E E E E E
|-----------------|---------------------|
|-----------------|---------------------|
|-----------------|---------------------|
|-----------------|---------------------|
|---------8---8---|--8S==9----9---------|
|-0-0-0-0---0---0-|---------0---0-0-0-0-|


                PM      PM----------| ~
  E E E E E E E E   E E E S S S S S S Q
|-----------------|-----------------------|
|-----------------|-----------------------|
|-----------------|-----------------------|
|-------7---6-----|-7-6-------------------|
|-0h4h9---9---9---|-5-4---------------5---|
|---------------0-|-----0-0-0-0-0-0-0-5---|
|
|               PM      PM----------| ~
| E E E E E E E E   E E E S S S S S S Q
|-----------------|-----------------------|
|-----------------|-----------------------|
|-----------------|-----------------------|
|-------7---6-----|-7-6-------------------|
|-0h4h9---9---9---|-5-4---------------5---|
|---------------0-|-----0-0-0-0-0-0-0-5---|


    Gtr I
    PM----------|   PM    PM                 ~~~~
    S S S S S S E E E  E  E    E   Q   E E E Q
||--------------------------|-------------------|
||o-------------------------|-------------------|
||--------------------------|-------------------|
||--------------------------|-------------------|
||o---------------8---[8]---|-[8]S[9]------9----|
||--4-4-4-4-4-4-4---4-----4-|----------3S4---7--|
|
|   Gtr II
|   PM----------|   PM    PM                 ~~~~
|   S S S S S S E E E  E  E    E   Q   E E E Q
||--------------------------|-------------------|
||o-------------------------|-------------------|
||--------------------------|-------------------|
||--------------------------|-------------------|
||o---------------8----8----|--8S==9-------9----|
||--4-4-4-4-4-4-4---4-----4-|----------3S4---7--|


 ~~~~~  PM|   PM--|
  +E  E E E E E E E   E E E E E E E E
|-------------------|-----------------|
|-------------------|-----------------|
|-------------------|-----------------|
|-------------------|-----------------|
|-----------8-------|-4p0-0-----------|
|-(7)-4-4-4---4-4-0-|-------0-0h4-7-6-|
|
|~~~~~  PM|   PM--|
| +E  E E E E E E E   E E E E E E E E
|-------------------|-----------------|
|-------------------|-----------------|
|-------------------|-----------------|
|-------------------|-----------------|
|-----------8-------|-4p0-0-----------|
|-(7)-4-4-4---4-4-0-|-------0-0h4-7-6-|


  Gtr I
    PM--|   PM  PM          PM  PM----|
  E E E E E E E E    E   E  E E E E E E
|-----------------|---------------------|
|-----------------|---------------------|
|-----------------|---------------------|
|-----------------|---------------------|
|---------8---8---|-[8]S[9]---9---------|
|-0-0-0-0---0---0-|---------0---0-0-0-0-|
|
| Gtr II
|   PM--|   PM  PM          PM  PM----|
| E E E E E E E E    E   E  E E E E E E
|-----------------|---------------------|
|-----------------|---------------------|
|-----------------|---------------------|
|-----------------|---------------------|
|---------8---8---|--8S==9----9---------|
|-0-0-0-0---0---0-|---------0---0-0-0-0-|


                PM      PM----------| ~
  E E E E E E E E   E E E S S S S S S Q    3x
|-----------------|------------------------||
|-----------------|-----------------------o||
|-----------------|------------------------||
|-------7---6-----|-7-6--------------------||
|-0h4h9---9---9---|-5-4---------------5---o||
|---------------0-|-----0-0-0-0-0-0-0-5----||
|
|               PM      PM----------| ~
| E E E E E E E E   E E E S S S S S S Q    3x
|-----------------|------------------------||
|-----------------|-----------------------o||
|-----------------|------------------------||
|-------7---6-----|-7-6--------------------||
|-0h4h9---9---9---|-5-4---------------5---o||
|---------------0-|-----0-0-0-0-0-0-0-5----||


  W          W          W
|----------|----------|------*|
|----------|----------|------*|
|----------|----------|------*|
|----------|----------|------*|
|----------|----------|------*|
|----------|----------|------*|

End.
comments
We did not receive enough feedback on this tab! Please rate:
print report bad tab
1 2 3 4 5
I want to post or [tab]
guest
You may want to rate the tab now too:
select rating
Please do not post tabs as comments. Select "correction" instead!