Oops, an error
Loading. Please wait.

Minions The Fallen Tab

70 views 1 this week
no commentswrite comment
1 2 3 4 5
please rate
Autoscroll
+/-
esc
set tempo
stop
Contributor
WARNING: You are trying to view
                                    content from Ultimate-Guitar.com
                                    in an unauthorized application,
                                    which is prohibited.

                                    Please use an official Ultimate
                                    Guitar Tabs application for iPhone,
                                    iPad or Android to access legitimate
                                    chords, guitar, bass, and drum tabs
                                    from Ultimate-Guitar.com database.

                                    Type "ultimate guitar tabs" in Apple
                                    App Store's or Android Market's
                                    search to find the application.
Psycroptic - 'Minions: The Fallen'
Symbols Of Failure (2006)
Neurotic Records


________________________________________________________________________________

Gtr I (D A D G B E) - 'Joe Haley'
Gtr II (D A D G B E) - 'Joe Haley'
Gtr III (D A D G B E) - 'Joe Haley'


 Riff 1 (0:00)
  Q=220
 4/4
  Gtr I
              PM         PM
  W           Q  S S S S Q  S S S S
|-----------|-----------------------|
|-----------|-----------------------|
|-----------|-----------------------|
|-----------|-----------------------|
|-3---------|-1--4-4-4-4-1--3-3-3-3-|
|-3---------|-1----------1----------|
|
| Gtr II
|             PM         PM
| H    H      Q  S S S S Q  S S S S
|-----------|-----------------------|
|-----------|-----------------------|
|-----------|-----------------------|
|-----------|-----------------------|
|-3----3----|-1--4-4-4-4-1--3-3-3-3-|
|-3----3----|-1----------1----------|


                  PM----| ~    PM--|   PM|
  S S S S S S S S S S S S Q    E E E E E E E E
|----------------------------|------------------|
|----------------------------|------------------|
|----------------------------|------------------|
|----------------------------|------------------|
|-3-3-3-3-1-1-1-1------------|-------1----------|
|-----------------4-4-4-4-3--|-0-1-4---4-3-1-4--|
|
|                 PM----| ~    PM--|   PM|
| S S S S S S S S S S S S Q    E E E E E E E E
|----------------------------|------------------|
|----------------------------|------------------|
|----------------------------|------------------|
|----------------------------|------------------|
|-3-3-3-3-1-1-1-1------------|-------1----------|
|-----------------4-4-4-4-3--|-0-1-4---4-3-1-4--|


  Gtrs I, II
  PM------------|   PM----------|         PM--|
  S S S S S S S S E E E E   S S E S S S S S S E S S S S
|-------------------------|-----------------------------|
|-------------------------|-----------------------------|
|-------------------------|-----------------------------|
|-------------------------|-----------------------------|
|-------------------------|-------4-4-4-4-------3-3-3-3-|
|-3-3-3-3-3-3-3-3-0-3-4-6-|-1-1-1---------1-1-1---------|


                PM|     PM|   PM
  S S E S S E E E E E   E E E E E E E E
|---------------------|-----------------|
|---------------------|-----------------|
|---------------------|-----------------|
|-------------2-----3-|-----5---6-------|
|-------1-3-4---4-4---|-3-3---3---4-3p0-|
|-1-3-4---------------|-----------------|


  Gtrs I, II
  PM------------|   PM----------|         PM--|
  S S S S S S S S E E E E   S S E S S S S S S E S S S S
|-------------------------|-----------------------------|
|-------------------------|-----------------------------|
|-------------------------|-----------------------------|
|-------------------------|-----------------------------|
|-------------------------|-------4-4-4-4-------3-3-3-3-|
|-3-3-3-3-3-3-3-3-0-3-4-6-|-1-1-1---------1-1-1---------|


                  PM----| ~    PM--|   PM|
  S S S S S S S S S S S S Q    E E E E E E E E
|----------------------------|--------------------|
|----------------------------|--------------------|
|----------------------------|--------------------|
|----------------------------|--------------------|
|-3-3-3-3-1-1-1-1------------|-------1------------|
|-----------------4-4-4-4-3--|-0-1-4---4-3-1-4----|


  Gtrs I, II
  PM------------|   PM----------|         PM--|
  S S S S S S S S E E E E   S S E S S S S S S E S S S S
|-------------------------|-----------------------------|
|-------------------------|-----------------------------|
|-------------------------|-----------------------------|
|-------------------------|-----------------------------|
|-------------------------|-------4-4-4-4-------3-3-3-3-|
|-3-3-3-3-3-3-3-3-0-3-4-6-|-1-1-1---------1-1-1---------|


                PM|     PM|   PM
  S S E S S E E E E E   E E E E Q  Q
|---------------------|---------------|
|---------------------|---------------|
|---------------------|---------------|
|-------------2-----3-|-----5---6-----|
|-------1-3-4---4-4---|-3-3---3-4-----|
|-1-3-4---------------|---------------|


  Gtrs I, II
  PM------------|   PM----------|         PM--|
  S S S S S S S S E E E E   S S E S S S S S S E S S S S
|-------------------------|-----------------------------|
|-------------------------|-----------------------------|
|-------------------------|-----------------------------|
|-------------------------|-----------------------------|
|-------------------------|-------4-4-4-4-------3-3-3-3-|
|-3-3-3-3-3-3-3-3-0-3-4-6-|-1-1-1---------1-1-1---------|


                  PM----| ~    PM--|   PM|
  S S S S S S S S S S S S Q    E E E E E E E E
|----------------------------|--------------------|
|----------------------------|--------------------|
|----------------------------|--------------------|
|----------------------------|--------------------|
|-3-3-3-3-1-1-1-1------------|-------1------------|
|-----------------4-4-4-4-3--|-0-1-4---4-3-1-4----|


  Gtrs I, II
  PM------------|   PM----------|         PM--|
  S S S S S S S S E E E E   S S E S S S S S S E S S S S
|-------------------------|-----------------------------|
|-------------------------|-----------------------------|
|-------------------------|-----------------------------|
|-------------------------|-----------------------------|
|-------------------------|-------4-4-4-4-------3-3-3-3-|
|-3-3-3-3-3-3-3-3-0-3-4-6-|-1-1-1---------1-1-1---------|


                PM|     PM|   PM
  S S E S S E E E E E   E E E E E E E E
|---------------------|-----------------|
|---------------------|-----------------|
|---------------------|-----------------|
|-------------2-----3-|-----5---6-------|
|-------1-3-4---4-4---|-3-3---3---4-3p0-|
|-1-3-4---------------|-----------------|


  Gtrs I, II
  PM------------|   PM----------|         PM--|
  S S S S S S S S E E E E   S S E S S S S S S E S S S S
|-------------------------|-----------------------------|
|-------------------------|-----------------------------|
|-------------------------|-----------------------------|
|-------------------------|-----------------------------|
|-------------------------|-------4-4-4-4-------3-3-3-3-|
|-3-3-3-3-3-3-3-3-0-3-4-6-|-1-1-1---------1-1-1---------|


                  PM----| ~    PM--|   PM|
  S S S S S S S S S S S S Q    E E E E E E E E
|----------------------------|--------------------|
|----------------------------|--------------------|
|----------------------------|--------------------|
|----------------------------|--------------------|
|-3-3-3-3-1-1-1-1------------|-------1------------|
|-----------------4-4-4-4-3--|-0-1-4---4-3-1-4----|


  Gtrs I, II
  PM------------|   PM----------|         PM--|
  S S S S S S S S E E E E   S S E S S S S S S E S S S S
|-------------------------|-----------------------------|
|-------------------------|-----------------------------|
|-------------------------|-----------------------------|
|-------------------------|-----------------------------|
|-------------------------|-------4-4-4-4-------3-3-3-3-|
|-3-3-3-3-3-3-3-3-0-3-4-6-|-1-1-1---------1-1-1---------|


                PM|     PM|   PM
  S S E S S E E E E E   E E E E Q  Q
|---------------------|---------------|
|---------------------|---------------|
|---------------------|---------------|
|-------------2-----3-|-----5---6-----|
|-------1-3-4---4-4---|-3-3---3-4-----|
|-1-3-4---------------|---------------|


 Riff 2 (0:33)
  Gtr I
  ~              PM--|            PM|         PM        PM| ~
  H    E E E E   E E Q  E E E E   E E E E E E E E   E E E E H
|--------------|----------------|-----------------|--------------|
|--------------|----------------|-----------------|--------------|
|--------------|----------------|-----------------|--------------|
|--------------|----------------|-----1-4-1h3---1-|--------------|
|------------3-|--------------1-|---3---------4---|-3-1----------|
|-3----0-3-4---|-4-3-1--1-4-3---|-4---------------|-----4-3-1----|
|
| Gtr II
| ~              PM--|
| H    E E E E   E E Q  H         W                 W
|--------------|----------------|-----------------|--------------|
|--------------|----------------|-----------------|--------------|
|--------------|----------------|-----------------|--------------|
|--------------|----------------|-----------------|--------------|
|------------3-|----------------|-----------------|--------------|
|-3----0-3-4---|-4-3-1----------|-----------------|--------------|


  Gtrs I, II
  ~              PM--|                                       PM
  H    E E E E   E E E E E E E E   E E E E E E E E   H    Q  Q
|--------------|-----------------|-----------------|------------|
|--------------|-----------------|-----------------|------------|
|--------------|-----------------|-----------------|------------|
|--------------|-----------------|---7-4-3---------|-3----6-----|
|------------3-|-------6---4-3---|---------6-4-3---|-1----4--1--|
|-3----0-3-4---|-7-4-3---------4-|-3-------------7-|---------1--|


  Gtrs I, II
  ~              PM--|            PM|         PM        PM| ~
  H    E E E E   E E Q  E E E E   E E E E E E E E   E E E E H
|--------------|----------------|-----------------|--------------|
|--------------|----------------|-----------------|--------------|
|--------------|----------------|-----------------|--------------|
|--------------|----------------|-----1-4-1h3---1-|--------------|
|------------3-|--------------1-|---3---------4---|-3-1----------|
|-3----0-3-4---|-4-3-1--1-4-3---|-4---------------|-----4-3-1----|


  Gtrs I, II
  ~              PM--|                                       PM      PM----|
  H    E E E E   E E E E E E E E   E E E E E E E E   H    Q  Q    Q  Q  Q  Q
|--------------|-----------------|-----------------|------------|-------------|
|--------------|-----------------|-----------------|------------|-------------|
|--------------|-----------------|-----------------|------------|-------------|
|--------------|-----------------|---7-4-3---------|-3----6-----|-5-----------|
|------------3-|-------6---4-3---|---------6-4-3---|-1----4--4--|-3--4--1--4--|
|-3----0-3-4---|-7-4-3---------4-|-3-------------7-|---------4--|----4--1--4--|


 Riff 3 (0:50)
  Gtrs I, II
  S S S S S S S S S S S S S S S S   S S S S S S S S S S S S S S S S
|---------------------------------|---------------------------------|
|---------------------------------|---------------------------------|
|---------------------------------|---------------------------------|
|---------------------------------|-3-3-3-3-------------------------|
|-----------------1-1-1-1-4-4-4-4-|---------4-4-4-4-1-1-1-1---------|
|-3-3-3-3-3-3-3-3-----------------|-------------------------3-3-3-3-|


  S S S S S S S S S S S S S S S S   S S S S S S S S S S S S S S S S
|---------------------------------|------------------------------------|
|---------------------------------|------------------------------------|
|---------------------------------|------------------------------------|
|---------------------------------|-4-4-4-4----------------------------|
|-----------------3-3-3-3-6-6-6-6-|---------6-6-6-6-3-3-3-3------------|
|-4-4-4-4-4-4-4-4-----------------|-------------------------4-4-4-4----|


  Gtrs I, II
  S S S S S S S S S S S S S S S S   S S S S S S S S S S S S S S S S
|---------------------------------|---------------------------------|
|---------------------------------|---------------------------------|
|---------------------------------|---------------------------------|
|---------------------------------|-1-1-1-1---------4-4-4-4-1-1-1-1-|
|-----------------3-3-3-3---------|---------3-3-3-3-----------------|
|-1-1-1-1-1-1-1-1---------4-4-4-4-|---------------------------------|


  S S S S S S S S S S S S S S S S   S S S S S S S S S S S S S S S S
|---------------------------------|------------------------------------|
|---------------------------------|------------------------------------|
|---------------------------------|---------2-2-2-2--------------------|
|---------1-1-1-1---------4-4-4-4-|-1-1-1-1---------4-4-4-4-1-1-1-1----|
|-0-0-0-0---------3-3-3-3---------|------------------------------------|
|---------------------------------|------------------------------------|


 Riff 4 (0:58)
  Gtr I
    PM--|   PM|     PM|   PM  PM--|     PM|   PM|     PM      PM--|     ~
  E E E E E E E E   E E E E E E E E   E E E E E E  E  E    E  E E E E E Q
|-----------------|-----------------|-------------------|------------------|
|-----------------|-----------------|-------------------|------------------|
|-----------------|-----------------|-------------------|------------------|
|-----------------|-----------------|-------------------|------------------|
|-----------------|-----4---3-------|-------------[4]---|-[3]-------1s4-4--|
|-3-3-3-3-4-3-3-7-|-3-3---3---3-3-3-|-4-3-3-7-3-3-----3-|-----3-3-3-1s4-4--|
|
| Gtr II
|   PM--|   PM|     PM|   PM  PM--|     PM|   PM|     PM      PM--|     ~
| E E E E E E E E   E E E E E E E E   E E E E E E  E  E    E  E E E E E Q
|-----------------|-----------------|-------------------|------------------|
|-----------------|-----------------|-------------------|------------------|
|-----------------|-----------------|-------------------|------------------|
|-----------------|-----------------|-------------------|-----------1s4-4--|
|-----------------|-----4---3-------|--------------4----|--3--------1s4-4--|
|-3-3-3-3-4-3-3-7-|-3-3---3---3-3-3-|-4-3-3-7-3-3-----3-|-----3-3-3--------|


  Gtrs I, II
    PM|     PM      PM    PM        PM------|     PM----|
  E E E E E E E E   E E E E  E   E  E E   E E E E E E E E
|-----------------|---------------------|-----------------|
|-----------------|---------------------|-----------------|
|-----------------|---------------------|-----------------|
|-----------------|---------[7]s[4]-----|-----7-4---------|
|-----------------|---4s3-0---------6-3-|---------6-3-----|
|-3-3-3-4s3-3-7s3-|-3-------------------|-7-4---------7-4-|


 Riff 5 (1:05)
  Gtr I
                  PM--|     PM-|
  S S S S S S S S E E E E   E  E S S S S S S S S S S S S
|-------------------------|------------------------------|
|-------------------------|------------------------------|
|-------------------------|------------------------------|
|-------------------------|------------------------------|
|-----------------------4-|------7-7-7-7-7-7-7-7---------|
|-6-6-6-6-6-6-6-6-4-6-7---|-7--6-----------------4-4-4-4-|
|
| Gtr II
| W                         H.                   S S S S
|-------------------------|------------------------------|
|-------------------------|------------------------------|
|-------------------------|------------------------------|
|-------------------------|------------------------------|
|-------------------------|------------------------------|
|-------------------------|----------------------4-4-4-4-|


                                    PM------------|   ~
  S S S S S S S S S S S S S S S S   S S S S E S S E E Q
|---------------------------------|------------------------|
|---------------------------------|------------------------|
|---------------------------------|------------------------|
|---------------------------------|-7-7-4------------------|
|-----------------6-6-6-6-6-6-6-6-|-------7-3-7-6-3--------|
|-7-7-7-7-6-6-6-6-----------------|-----------------4-7----|
|
|                                   PM------------|   ~
| S S S S S S S S S S S S S S S S   S S S S E S S E E Q
|---------------------------------|------------------------|
|---------------------------------|------------------------|
|---------------------------------|------------------------|
|---------------------------------|-7-7-4------------------|
|-----------------6-6-6-6-6-6-6-6-|-------7-3-7-6-3--------|
|-7-7-7-7-6-6-6-6-----------------|-----------------4-7----|


  Gtrs I, II
                  PM--|     PM|
  S S S S S S S S E E E E   E E S S S S S S S S S S S S
|-------------------------|-----------------------------|
|-------------------------|-----------------------------|
|-------------------------|-----------------------------|
|-------------------------|-----------------------------|
|-----------------------4-|-----7-7-7-7-7-7-7-7---------|
|-6-6-6-6-6-6-6-6-4-6-7---|-7-6-----------------4-4-4-4-|


                                    PM----| ~  PM----| ~
  S S S S S S S S S S S S S S S S   S S S S Q  S S S S Q
|---------------------------------|-------------------------|
|---------------------------------|-------------------------|
|---------------------------------|-------------------------|
|---------------------------------|-------------------------|
|---------------------------------|-------------------------|
|-7-7-7-7-6-6-6-6-1-1-1-1-2-2-2-2-|-6-6-6-6-4--6-6-6-9-7----|


    Gtrs I, II
                    PM--|     PM|
    S S S S S S S S E E E E   E E S S S S S S S S S S S S
||--------------------------|-----------------------------|
||o-------------------------|-----------------------------|
||--------------------------|-----------------------------|
||--------------------------|-----------------------------|
||o-----------------------4-|-----7-7-7-7-7-7-7-7---------|
||--6-6-6-6-6-6-6-6-4-6-7---|-7-6-----------------4-4-4-4-|


                                    PM------------|
  S S S S S S S S S S S S S S S S   S S S S E S S E E S S S S
|---------------------------------|---------------------------|
|---------------------------------|---------------------------|
|---------------------------------|---------------------------|
|---------------------------------|-7-7-4---------------------|
|-----------------6-6-6-6-6-6-6-6-|-------7-3-7-6-3-----------|
|-7-7-7-7-6-6-6-6-----------------|-----------------4-7-7-7-7-|


  Gtrs I, II
                  PM--|     PM|
  S S S S S S S S E E E E   E E S S S S S S S S S S S S
|-------------------------|-----------------------------|
|-------------------------|-----------------------------|
|-------------------------|-----------------------------|
|-------------------------|-----------------------------|
|-----------------------4-|-----7-7-7-7-7-7-7-7---------|
|-6-6-6-6-6-6-6-6-4-6-7---|-7-6-----------------4-4-4-4-|


                                    PM----| ~  PM----| ~
  S S S S S S S S S S S S S S S S   S S S S Q  S S S S Q
|---------------------------------|--------------------------||
|---------------------------------|-------------------------o||
|---------------------------------|--------------------------||
|---------------------------------|--------------------------||
|---------------------------------|-------------------------o||
|-7-7-7-7-6-6-6-6-1-1-1-1-2-2-2-2-|-6-6-6-6-4--6-6-6-9-7-----||


 4/4
  Gtr I
              PM         PM
  W           Q  S S S S Q  S S S S
|-----------|-----------------------|
|-----------|-----------------------|
|-----------|-----------------------|
|-----------|-----------------------|
|-3---------|-1--4-4-4-4-1--3-3-3-3-|
|-3---------|-1----------1----------|
|
| Gtr II
|             PM         PM
| H    H      Q  S S S S Q  S S S S
|-----------|-----------------------|
|-----------|-----------------------|
|-----------|-----------------------|
|-----------|-----------------------|
|-3----3----|-1--4-4-4-4-1--3-3-3-3-|
|-3----3----|-1----------1----------|


                  PM----| ~    PM--|   PM|
  S S S S S S S S S S S S Q    E E E E E E E E
|----------------------------|------------------|
|----------------------------|------------------|
|----------------------------|------------------|
|----------------------------|------------------|
|-3-3-3-3-1-1-1-1------------|-------1----------|
|-----------------4-4-4-4-3--|-0-1-4---4-3-1-4--|
|
|                 PM----| ~    PM--|   PM|
| S S S S S S S S S S S S Q    E E E E E E E E
|----------------------------|------------------|
|----------------------------|------------------|
|----------------------------|------------------|
|----------------------------|------------------|
|-3-3-3-3-1-1-1-1------------|-------1----------|
|-----------------4-4-4-4-3--|-0-1-4---4-3-1-4--|


  Gtrs I, II
  PM------------|   PM----------|         PM--|
  S S S S S S S S E E E E   S S E S S S S S S E S S S S
|-------------------------|-----------------------------|
|-------------------------|-----------------------------|
|-------------------------|-----------------------------|
|-------------------------|-----------------------------|
|-------------------------|-------4-4-4-4-------3-3-3-3-|
|-3-3-3-3-3-3-3-3-0-3-4-6-|-1-1-1---------1-1-1---------|


                PM|     PM|   PM
  S S E S S E E E E E   E E E E E E E E
|---------------------|-----------------|
|---------------------|-----------------|
|---------------------|-----------------|
|-------------2-----3-|-----5---6-------|
|-------1-3-4---4-4---|-3-3---3---4-3p0-|
|-1-3-4---------------|-----------------|


  Gtrs I, II
  PM------------|   PM----------|         PM--|
  S S S S S S S S E E E E   S S E S S S S S S E S S S S
|-------------------------|-----------------------------|
|-------------------------|-----------------------------|
|-------------------------|-----------------------------|
|-------------------------|-----------------------------|
|-------------------------|-------4-4-4-4-------3-3-3-3-|
|-3-3-3-3-3-3-3-3-0-3-4-6-|-1-1-1---------1-1-1---------|


                  PM----| ~    PM--|   PM|
  S S S S S S S S S S S S Q    E E E E E E E E
|----------------------------|--------------------|
|----------------------------|--------------------|
|----------------------------|--------------------|
|----------------------------|--------------------|
|-3-3-3-3-1-1-1-1------------|-------1------------|
|-----------------4-4-4-4-3--|-0-1-4---4-3-1-4----|


  Gtrs I, II
  PM------------|   PM----------|         PM--|
  S S S S S S S S E E E E   S S E S S S S S S E S S S S
|-------------------------|-----------------------------|
|-------------------------|-----------------------------|
|-------------------------|-----------------------------|
|-------------------------|-----------------------------|
|-------------------------|-------4-4-4-4-------3-3-3-3-|
|-3-3-3-3-3-3-3-3-0-3-4-6-|-1-1-1---------1-1-1---------|


                PM|     PM|   PM
  S S E S S E E E E E   E E E E Q  Q
|---------------------|---------------|
|---------------------|---------------|
|---------------------|---------------|
|-------------2-----3-|-----5---6-----|
|-------1-3-4---4-4---|-3-3---3-4-----|
|-1-3-4---------------|---------------|


   Riff 6 (1:47)
    Gtrs I, II
    PM
                                |-3-| |-3-|
    E E E E E E E E    E  E E E E E E E E E
||------------------|-----------------------|
||o-----------------|-----------------------|
||--------------3---|-----------------------|
||--0-7-0h4---------|--0--7-----------0h4h7-|
||o---------3h6---6-|-------5p0-0h3h6-------|
||------------------|-----------------------|
|
|   Gtr III
|   W                 +W
||------------------|-----------------------|
||o-----------------|-----------------------|
||------------------|-----------------------|
||------------------|-----------------------|
||o-0---------------|-(0)-------------------|
||--0---------------|-(0)-------------------|


  PM              PM
                          |-3-|
  E   E E E E E E E   E E E E E E E E E
|-------------------|-------------------|
|-------------------|-------------------|
|---------------3---|-------------------|
|-----7-0h4---------|-4---------0h4-5---|
|-0---------0h3---3-|---0-0h3h6-------6-|
|-------------------|-------------------|
|
| H..             E   W
|-------------------|-------------------|
|-------------------|-------------------|
|-------------------|-------------------|
|-6-----------------|-------------------|
|-4---------------7s|=8-----------------|
|-----------------7s|=8-----------------|


  Gtrs I, II
  PM                                        PM            PM    PM  PM~
                              |-3-| |-3-|
  E E E E E E E E    E  E E E E E E E E E   E E E E E E E E   E E E E H
|-----------------|-----------------------|-----------------|---------------||
|-----------------|-----------------------|-----------------|--------------o||
|-------------3---|-----------------------|-------------3---|---------------||
|-0-7-0h4---------|--0--7-----------0h4h7-|---7-0h4---------|-4-------------||
|---------3h6---6-|-------5p0-0h3h6-------|-0-------0h3-----|---0-6-0-3----o||
|-----------------|-----------------------|---------------0-|---------------||
|
| Gtr III
|                                                                     ~
| W                 +W                      W                 H       H
|-----------------|-----------------------|-----------------|---------------||
|-----------------|-----------------------|-----------------|--------------o||
|-----------------|-----------------------|-----------------|---------------||
|-----------------|-----------------------|-----------------|-3-------------||
|-0---------------|-(0)-------------------|-1---------------|-1-------3----o||
|-0---------------|-(0)-------------------|-1---------------|---------------||


   Riff 7 (2:04)
    Gtrs I, II
    PM            PM
                              |-3-| |-3-|
    E E E E E E E E   E E E E E E E E E E
||------------------|---------------------|
||o-----------------|---------------------|
||------------------|---------------------|
||------------------|-----7p0-------------|
||o-------9-----1---|-0-5-----------0h3h6-|
||--0-7-0---0h1---1-|---------0h4h7-------|


  PM            PM
                        |-3-|
  E E E E E E E E   E E E E E E E E E
|-----------------|-------------------|
|-----------------|-------------------|
|-----------------|-------------------|
|-----------------|-4-----------------|
|-------9-----1---|---0-0h3h6-------6-|
|-0-7-0---0h1---1-|-----------0-4-5---|


  Gtrs I, II
  PM            PM                        PM            PM    PM  PM~
                            |-3-| |-3-|
  E E E E E E E E   E E E E E E E E E E   E E E E E E E E   E E E E H
|-----------------|---------------------|-----------------|---------------||
|-----------------|---------------------|-----------------|--------------o||
|-----------------|---------------------|-----------------|---------------||
|-----------------|-----7p0-------------|-----------------|-4-------------||
|-------9-----1---|-0-5-----------0h3h6-|-------9-----1---|-----6---3----o||
|-0-7-0---0h1---1-|---------0h4h7-------|-0-7-0---0h1---1-|---0---0-------||


   Riff 8 (2:21)
    Gtr I
                PM|       PM|     PM|               PM|         PM    PM|
    E E E E E E E E   E E E E E E E E   E E E E E E E E   E E E E E E E E
||------------------|-----------------|-----------------|-------------------||
||o-----------------|-----------------|-----------------|------------------o||
||------------------|-----------------|-----------------|-------------------||
||------------------|-----------------|-----------------|-------------------||
||o-----9-----------|-3---------------|-----9-----------|-6p3-----3--------o||
||--7p0---7p0-0-0-0-|---4-0-0-1p0-0-0-|-7p0---7p0-0-0-0-|-----4-0---4-1-1---||
|
|   Gtr II
|               PM|       PM|     PM|               PM|         PM    PM|
|   E E E E E E E E   E E E E E E E E   E E E E E E E E   E E E E E E E E
||------------------|-----------------|-----------------|-------------------||
||o-----------------|-----------------|-----------------|------------------o||
||------------------|-----------------|-----------------|-------------------||
||------------------|-----------------|-----------------|-------------------||
||o-----------------|-3---------------|-----------------|-6p3-----3--------o||
||--7p0-0-7p0-0-0-0-|---4-0-0-1p0-0-0-|-7p0-0-7p0-0-0-0-|-----4-0---4-1-1---||


  Gtr I
                                               PM|       PM|     PM|
  E E E E H      E E E E H       H        E  E E E   E E E E E E E E
|--------------|--------------|--------------------|-----------------|
|--------------|--------------|--------------------|-----------------|
|--------------|--------------|--------------------|-----------------|
|--------------|--------------|--------------------|-----------------|
|--------------|--------------|-------------12-----|-3---------------|
|-1p0h1--------|-1p0h1-4------|-----------0----0-0-|---4-1-1-1p0-0-0-|
|
| Gtr II
|                                              PM|       PM|     PM|
| E E E E H      E E E E H       E  E E E E  E E E   E E E E E E E E
|--------------|--------------|--------------------|-----------------|
|--------------|--------------|--------------------|-----------------|
|--------------|--------------|--------------------|-----------------|
|--------------|--------------|-[7]-0-4------------|-----------------|
|--------------|--------------|---------0----------|-3---------------|
|-1p0h1--------|-1p0h1-4------|-----------0--0-0-0-|---4-1-1-1p0-0-0-|


  Gtr I
                  PM|         PM    PM|                 PM|       PM|     PM|
   E  E E E S S E E E   E E E E E E E E    E  E E E E E E E   E E E E E E E E
|---------------------|-----------------|-------------------|------------------|
|---------------------|-----------------|-------------------|------------------|
|---------------------|-----------------|-------------------|------------------|
|---------------------|-----------------|-------------------|------------------|
|---------------------|-6p3-----3-------|-------------------|-3----------------|
|--7p=0-4-7-0-0-0-0-0-|-----4-0---4-1-0-|--7p=0-4-7-0-0-0-0-|---4-1-1-1p0-0-0--|
|
| Gtr II
|                 PM|         PM    PM|                 PM|       PM|     PM|
|  E  E E E S S E E E   E E E E E E E E    E  E E E E E E E   E E E E E E E E
|---------------------|-----------------|-------------------|------------------|
|---------------------|-----------------|-------------------|------------------|
|---------------------|-----------------|-------------------|------------------|
|-[7]p0-4-7-0-0-0-----|-----------------|-[7]p0-4-7-0-0-----|------------------|
|---------------------|-6p3-----3-------|-------------------|-3----------------|
|-----------------0-0-|-----4-0---4-1-0-|---------------0-0-|---4-1-1-1p0-0-0--|


  Gtr I
                PM|         PM    PM|              PM|       PM|     PM|
   E  E E E E E E E   E E E E E E E E   E Q.   E E E E   E E E E E E E E
|-------------------|-----------------|----------------|-----------------|
|-------------------|-----------------|----------------|-----------------|
|-------------------|-----------------|----------------|-----------------|
|-------------------|-----------------|----------------|-----------------|
|-------------------|-6p3-----3-------|-0--------------|-3---------------|
|--7p=0-4-7-0-0-0-0-|-----4-0---4-1-0-|-0------4p0-0-0-|---4-1-1-1p0-0-0-|
|
| Gtr II
|               PM|         PM    PM|              PM|       PM|     PM|
|  E  E E E E E E E   E E E E E E E E   E Q.   E E E E   E E E E E E E E
|-------------------|-----------------|----------------|-----------------|
|-------------------|-----------------|----------------|-----------------|
|-------------------|-----------------|----------------|-----------------|
|-[7]p0-4-7-0-0-----|-----------------|--------4p0-----|-----------------|
|-------------------|-6p3-----3-------|-0--------------|-3---------------|
|---------------0-0-|-----4-0---4-1-0-|-0----------0-0-|---4-1-1-1p0-0-0-|


  Gtr I
                PM|         PM    PM|                 PM|       PM|     PM|
   E  E E E E E E E   E E E E E E E E    E  E E E E E E E   E E E E E E E E
|-------------------|-----------------|-------------------|-----------------|
|-------------------|-----------------|-------------------|-----------------|
|-------------------|-----------------|-------------------|-----------------|
|-------------------|-----------------|-------------------|-----------------|
|-------------------|-6p3-----3-------|-------------------|-3---------------|
|--7p=0-4-7-0-0-0-0-|-----4-0---4-1-0-|--7p=0-4-7-0-0-0-0-|---4-1-1-1p0-0-0-|
|
| Gtr II
|               PM|         PM    PM|                 PM|       PM|     PM|
|  E  E E E E E E E   E E E E E E E E    E  E E E E E E E   E E E E E E E E
|-------------------|-----------------|-------------------|-----------------|
|-------------------|-----------------|-------------------|-----------------|
|-------------------|-----------------|-------------------|-----------------|
|-[7]p0-4-7-0-0-----|-----------------|-[7]p0-4-7-0-0-----|-----------------|
|-------------------|-6p3-----3-------|-------------------|-3---------------|
|---------------0-0-|-----4-0---4-1-0-|---------------0-0-|---4-1-1-1p0-0-0-|


  Gtr I
                PM|         PM    PM|       PM|   PM--|
   E  E E E E E E E   E E E E E E E E   E E E E E E E E
|-------------------|-----------------|-----------------|
|-------------------|-----------------|-----------------|
|-------------------|-----------------|-----------------|
|-------------------|-----------------|-7p4-----4-------|
|-------------------|-6p3-----3-------|-----6-3---6-3-0-|
|--7p=0-4-7-0-0-0-0-|-----4-0---4-1-0-|-----------------|
|
| Gtr II
|               PM|         PM    PM|
|  E  E E E E E E E   E E E E E E E E   H       E E E E
|-------------------|-----------------|-----------------|
|-------------------|-----------------|---------7-4-----|
|-------------------|-----------------|-------------5---|
|-[7]p0-4-7-0-0-----|-----------------|---------------7-|
|-------------------|-6p3-----3-------|-----------------|
|---------------0-0-|-----4-0---4-1-0-|-----------------|


 Riff 3a (2:51)
  Gtr I
    PM--|   PM--|     PM|   PM  PM--|     PM|   PM|     PM      PM--|     ~
  E E E E E S S E E   E E E E E E E E   E E E E E E  E  E    E  E E E E E Q
|-------------------|-----------------|-------------------|-------------------|
|-------------------|-----------------|-------------------|-------------------|
|-------------------|-----------------|-------------------|-------------------|
|-------------------|-----------------|-------------------|-------------------|
|-------------------|-----4---3-------|-------------[4]---|-[3]-------1s4-4---|
|-3-3-3-3-4-3-3-3-7-|-3-3---3---3-3-3-|-4-3-3-7-3-3-----3-|-----3-3-3-1s4-4---|
|
| Gtr II
|   PM--|   PM--|     PM|   PM  PM--|     PM|   PM|     PM      PM--|     ~
| E E E E E S S E E   E E E E E E E E   E E E E E E  E  E    E  E E E E E Q
|-------------------|-----------------|-------------------|-------------------|
|-------------------|-----------------|-------------------|-------------------|
|-------------------|-----------------|-------------------|-------------------|
|-------------------|-----------------|-------------------|-----------1s4-4---|
|-------------------|-----4---3-------|--------------4----|--3--------1s4-4---|
|-3-3-3-3-4-3-3-3-7-|-3-3---3---3-3-3-|-4-3-3-7-3-3-----3-|-----3-3-3---------|


    Gtr I
      PM--|   PM|     PM|   PM  PM--|
    E E E E E E E E   E E E E E E E E
||------------------|-----------------|
||o-----------------|-----------------|
||------------------|-----------------|
||------------------|-----------------|
||o-----------------|-----4---3-------|
||--3-3-3-3-4-3-3-7-|-3-3---3---3-3-3-|
|
|   Gtr II
|     PM--|   PM|     PM|   PM  PM--|
|   E E E E E E E E   E E E E E E E E
||------------------|-----------------|
||o-----------------|-----------------|
||------------------|-----------------|
||------------------|-----------------|
||o-----------------|-----4---3-------|
||--3-3-3-3-4-3-3-7-|-3-3---3---3-3-3-|


    PM|   PM|     PM      PM--|     ~
  E E E E E E  E  E    E  E E E E E Q
|-------------------|--------------------||
|-------------------|-------------------o||
|-------------------|--------------------||
|-------------------|--------------------||
|-------------[4]---|-[3]-------1s4-4---o||
|-4-3-3-7-3-3-----3-|-----3-3-3-1s4-4----||
|
|   PM|   PM|     PM      PM--|     ~
| E E E E E E  E  E    E  E E E E E Q
|-------------------|--------------------||
|-------------------|-------------------o||
|-------------------|--------------------||
|-------------------|-----------1s4-4----||
|--------------4----|--3--------1s4-4---o||
|-4-3-3-7-3-3-----3-|-----3-3-3----------||


  Gtr I
    PM--|   PM|     PM|   PM  PM--|     PM|   PM|     PM
  E E E E E E E E   E E E E E E E E   E E E E E E  E  E    E  E Q   E E Q
|-----------------|-----------------|-------------------|-------------------|
|-----------------|-----------------|-------------------|-------------------|
|-----------------|-----------------|-------------------|-------------------|
|-----------------|-----------------|-------------------|-------------------|
|-----------------|-----4---3-------|-------------[4]---|-[3]-------5s8-8\--|
|-3-3-3-3-4-3-3-7-|-3-3---3---3-3-3-|-4-3-3-7-3-3-----3-|-----3-------------|
|
| Gtr II
|   PM--|   PM|     PM|   PM  PM--|     PM|   PM|     PM
| E E E E E E E E   E E E E E E E E   E E E E E E  E  E    E  E H.
|-----------------|-----------------|-------------------|-------------------|
|-----------------|-----------------|-------------------|-------------------|
|-----------------|-----------------|-------------------|-------------------|
|-----------------|-----------------|-------------------|-------------------|
|-----------------|-----4---3-------|--------------4----|--3----------------|
|-3-3-3-3-4-3-3-7-|-3-3---3---3-3-3-|-4-3-3-7-3-3-----3-|-----3-------------|


 Riff 9 (3:08)
  Gtrs I, II
    PM--|   PM  PM----------------------------------|
  E S S E E E E E E   S S S S S S S S S S S S S S S S
|-------------------|---------------------------------|
|-------------------|---------------------------------|
|-------------------|---------------------------------|
|-------------------|---------------------------------|
|---------2---2-----|-3-3-2-2-3-3-2-2-----------------|
|-0-2-2-3---3---3-0-|-----------------5-5-4-4-2-2-1-1-|


    PM--|   PM  PM------------------|
  E S S E E E E E E   S S S S S S S S E  E  E E
|-------------------|----------------------------|
|-------------------|----------------------------|
|-------------------|-----------------7s10-10s7--|
|-------------------|----------------------------|
|---------2---2-----|-3-3-2-2-3-3-0-0-5s=8--8s5--|
|-0-2-2-3---3---3-0-|----------------------------|


  Gtrs I, II
    PM--|   PM  PM----------------------------------|
  E S S E E E E E E   S S S S S S S S S S S S S S S S
|-------------------|---------------------------------|
|-------------------|---------------------------------|
|-------------------|---------------------------------|
|-------------------|---------------------------------|
|---------2---2-----|-3-3-2-2-3-3-2-2-----------------|
|-0-2-2-3---3---3-0-|-----------------5-5-4-4-2-2-1-1-|


    PM--|   PM  PM------------------------|
                                      |-3-|
  E S S E E E E E E   S S S S S S S S Q Q Q
|-------------------|-------------------------|
|-------------------|-------------------------|
|-------------------|-------------------------|
|-------------------|-------------------------|
|---------2---2-----|-3-3-2-2-3-3-0-0-3-2-1---|
|-0-2-2-3---3---3-0-|-----------------3-2-1---|


   Riff 10 (3:16)
    Gtrs I, II
      PM|   PM  PM|           PM----|     PM|   PM  PM|
    E E E E E E E E   E E E E E E E E   E E E E E E E E   E E E E E  E  E E
||------------------|-----------------|-----------------|--------------------|
||o-----------------|-----------------|-----------------|--------------------|
||------------------|-----------------|-----------------|---------7s10-10s7--|
||--------4---4-----|-5s4-5s4---------|-------4---4-----|-5s4-5s4------------|
||o-0-2-3-2-3-2-3-0-|-3s2-3s2-5-4-2-1-|-0-2-3-2-3-2-3-0-|-3s2-3s2-5s=8--8s5--|
||--0-2-3---3---3-0-|---------5-4-2-1-|-0-2-3---3---3-0-|--------------------|


  Gtrs I, II
    PM|   PM  PM|           PM----|     PM|   PM  PM|           PM--|
                                                                |-3-|
  E E E E E E E E   E E E E E E E E   E E E E E E E E   E E E E Q Q Q
|-----------------|-----------------|-----------------|-----------------||
|-----------------|-----------------|-----------------|----------------o||
|-----------------|-----------------|-----------------|-----------------||
|-------4---4-----|-5s4-5s4---------|-------4---4-----|-5s4-5s4---------||
|-0-2-3-2-3-2-3-0-|-3s2-3s2-5-4-2-1-|-0-2-3-2-3-2-3-0-|-3s2-3s2-3-2-1--o||
|-0-2-3---3---3-0-|---------5-4-2-1-|-0-2-3---3---3-0-|---------3-2-1---||


 4/4
  Gtr I
              PM         PM
  W           Q  S S S S Q  S S S S
|-----------|-----------------------|
|-----------|-----------------------|
|-----------|-----------------------|
|-----------|-----------------------|
|-3---------|-1--4-4-4-4-1--3-3-3-3-|
|-3---------|-1----------1----------|
|
| Gtr II
|             PM         PM
| H    H      Q  S S S S Q  S S S S
|-----------|-----------------------|
|-----------|-----------------------|
|-----------|-----------------------|
|-----------|-----------------------|
|-3----3----|-1--4-4-4-4-1--3-3-3-3-|
|-3----3----|-1----------1----------|


                  PM----| ~    PM--|   PM|
  S S S S S S S S S S S S Q    E E E E E E E E
|----------------------------|------------------|
|----------------------------|------------------|
|----------------------------|------------------|
|----------------------------|------------------|
|-3-3-3-3-1-1-1-1------------|-------1----------|
|-----------------4-4-4-4-3--|-0-1-4---4-3-1-4--|
|
|                 PM----| ~    PM--|   PM|
| S S S S S S S S S S S S Q    E E E E E E E E
|----------------------------|------------------|
|----------------------------|------------------|
|----------------------------|------------------|
|----------------------------|------------------|
|-3-3-3-3-1-1-1-1------------|-------1----------|
|-----------------4-4-4-4-3--|-0-1-4---4-3-1-4--|


  Gtrs I, II
  PM------------|   PM----------|         PM--|
  S S S S S S S S E E E E   S S E S S S S S S E S S S S
|-------------------------|-----------------------------|
|-------------------------|-----------------------------|
|-------------------------|-----------------------------|
|-------------------------|-----------------------------|
|-------------------------|-------4-4-4-4-------3-3-3-3-|
|-3-3-3-3-3-3-3-3-0-3-4-6-|-1-1-1---------1-1-1---------|


                PM|     PM|   PM
  S S E S S E E E E E   E E E E E E E E
|---------------------|-----------------|
|---------------------|-----------------|
|---------------------|-----------------|
|-------------2-----3-|-----5---6-------|
|-------1-3-4---4-4---|-3-3---3---4-3p0-|
|-1-3-4---------------|-----------------|


  Gtrs I, II
  PM------------|   PM----------|         PM--|
  S S S S S S S S E E E E   S S E S S S S S S E S S S S
|-------------------------|-----------------------------|
|-------------------------|-----------------------------|
|-------------------------|-----------------------------|
|-------------------------|-----------------------------|
|-------------------------|-------4-4-4-4-------3-3-3-3-|
|-3-3-3-3-3-3-3-3-0-3-4-6-|-1-1-1---------1-1-1---------|


                  PM----| ~    PM--|   PM|
  S S S S S S S S S S S S Q    E E E E E E E E
|----------------------------|--------------------|
|----------------------------|--------------------|
|----------------------------|--------------------|
|----------------------------|--------------------|
|-3-3-3-3-1-1-1-1------------|-------1------------|
|-----------------4-4-4-4-3--|-0-1-4---4-3-1-4----|


  Gtrs I, II
  PM------------|   PM----------|         PM--|
  S S S S S S S S E E E E   S S E S S S S S S E S S S S
|-------------------------|-----------------------------|
|-------------------------|-----------------------------|
|-------------------------|-----------------------------|
|-------------------------|-----------------------------|
|-------------------------|-------4-4-4-4-------3-3-3-3-|
|-3-3-3-3-3-3-3-3-0-3-4-6-|-1-1-1---------1-1-1---------|


                PM|     PM|   PM
  S S E S S E E E E E   E E E E Q  Q
|---------------------|---------------*|
|---------------------|---------------*|
|---------------------|---------------*|
|-------------2-----3-|-----5---6-----*|
|-------1-3-4---4-4---|-3-3---3-4-----*|
|-1-3-4---------------|---------------*|


End.
comments
We did not receive enough feedback on this tab! Please rate:
print report bad tab
1 2 3 4 5
I want to post or [tab]
guest
You may want to rate the tab now too:
select rating
Please do not post tabs as comments. Select "correction" instead!