Oops, an error
Loading. Please wait.

Missionaries Of A Future To Come Tab

15 views 1 this week
no commentswrite comment
1 2 3 4 5
please rate
Autoscroll
+/-
esc
set tempo
stop
Contributor
WARNING: You are trying to view
                                    content from Ultimate-Guitar.com
                                    in an unauthorized application,
                                    which is prohibited.

                                    Please use an official Ultimate
                                    Guitar Tabs application for iPhone,
                                    iPad or Android to access legitimate
                                    chords, guitar, bass, and drum tabs
                                    from Ultimate-Guitar.com database.

                                    Type "ultimate guitar tabs" in Apple
                                    App Store's or Android Market's
                                    search to find the application.
Psycroptic - 'Missionaries Of A Future To Come'
Symbols Of Failure (2006)
Neurotic Records


________________________________________________________________________________


Gtr I (D A D G B E) - 'Joe Haley'
Gtr II (D A D G B E) - 'Joe Haley'

 Riff 1 (0:00)
  Q=225
 4/4
  Gtrs I, II
                                    ~    PM|   PM|
  S S S S S S S S S S S S S S S S   Q  E E E E E E
|---------------------------------|----------------|
|---------------------------------|----------------|
|---------------------------------|----------------|
|---------------------------------|----------------|
|-8-8-8-8-8-8-8-8-----------------|----------5-----|
|-----------------5-5-5-5-5-5-5-5-|-5--0-5-6---6-5-|


                                    PM  ~  PM
  S S S S S S S S S S S S S S S S   E E Q  E E E E
|---------------------------------|------------------|
|---------------------------------|------------------|
|---------------------------------|------------------|
|---------------------------------|------------------|
|-8-8-8-8-8-8-8-8-----------------|---5--------------|
|-----------------5-5-5-5-5-5-5-5-|-0---9--0-6-6-6---|


  Gtrs I, II
                                    ~    PM|   PM|
  S S S S S S S S S S S S S S S S   Q  E E E E E E
|---------------------------------|----------------|
|---------------------------------|----------------|
|---------------------------------|----------------|
|---------------------------------|----------------|
|-8-8-8-8-8-8-8-8-----------------|----------5-----|
|-----------------5-5-5-5-5-5-5-5-|-5--0-5-6---6-5-|


                                                    PM
  S S S S S S S S S S S S S S S S   S S S S S S S S E S S S S S S
|---------------------------------|--------------------------------|
|---------------------------------|--------------------------------|
|---------------------------------|--------------------------------|
|---------------------------------|--------------------------------|
|-8-8-8-8-8-8-8-8-----------------|-5-5-5-5-----------6-6-6-6-6-6--|
|-----------------5-5-5-5-5-5-5-5-|---------4-4-4-4-0--------------|


  Gtrs I, II
                                    ~    PM|   PM|
  S S S S S S S S S S S S S S S S   Q  E E E E E E
|---------------------------------|----------------|
|---------------------------------|----------------|
|---------------------------------|----------------|
|---------------------------------|----------------|
|-8-8-8-8-8-8-8-8-----------------|----------5-----|
|-----------------5-5-5-5-5-5-5-5-|-5--0-5-6---6-5-|


                                    PM  ~  PM
  S S S S S S S S S S S S S S S S   E E Q  E E E E
|---------------------------------|-------------------|
|---------------------------------|-------------------|
|---------------------------------|-------------------|
|---------------------------------|-------------------|
|-8-8-8-8-8-8-8-8-----------------|---5---------------|
|-----------------5-5-5-5-5-5-5-5-|-0---9--0-6-6-6----|


  Gtrs I, II
  PM                              ~    PM|   PM|
  E S S S S S S S S S S S S S S   Q  E E E E E E
|-------------------------------|----------------|
|-------------------------------|----------------|
|-------------------------------|----------------|
|-------------------------------|----------------|
|---8-8-8-8-8-8-----------------|----------5-----|
|-5-------------5-5-5-5-5-5-5-5-|-5--0-5-6---6-5-|


                                    PM  PM    PM|
  S S S S S S S S S S S S S S S S   E E E E E E E E
|---------------------------------|-----------------|
|---------------------------------|-----------------|
|---------------------------------|-----------------|
|---------------------------------|-----------------|
|-8-8-8-8-8-8-8-8-----------------|---5---5h6-----6-|
|-----------------5-5-5-5-5-5-5-5-|-0---0-----0-3---|


  Gtrs I, II
    PM                      ~    PM|   PM|
  E E E E S S S S S S S S   Q  E E E E E E
|-------------------------|----------------|
|-------------------------|----------------|
|-------------------------|----------------|
|-3-----------------------|----------------|
|-------------------------|----------5-----|
|---0-1p0-5-5-5-5-5-5-5-5-|-5--0-5-6---6-5-|


                                    PM  ~  PM
  S S S S S S S S S S S S S S S S   E E Q  E E E E
|---------------------------------|----------------|
|---------------------------------|----------------|
|---------------------------------|----------------|
|---------------------------------|----------------|
|-8-8-8-8-8-8-8-8-----------------|---5------------|
|-----------------5-5-5-5-5-5-5-5-|-0---9--0-6-6-6-|


  Gtrs I, II
                                    ~    PM|   PM|
  S S S S S S S S S S S S S S S S   Q  E E E E E E
|---------------------------------|----------------|
|---------------------------------|----------------|
|---------------------------------|----------------|
|---------------------------------|----------------|
|-8-8-8-8-8-8-8-8-----------------|----------5-----|
|-----------------5-5-5-5-5-5-5-5-|-5--0-5-6---6-5-|


                                                    PM
  S S S S S S S S S S S S S S S S   S S S S S S S S E S S S S S S
|---------------------------------|--------------------------------|
|---------------------------------|--------------------------------|
|---------------------------------|--------------------------------|
|---------------------------------|--------------------------------|
|-8-8-8-8-8-8-8-8-----------------|-5-5-5-5-----------6-6-6-6-6-6--|
|-----------------5-5-5-5-5-5-5-5-|---------4-4-4-4-0--------------|


  Gtrs I, II
                                    ~    PM|   PM|
  S S S S S S S S S S S S S S S S   Q  E E E E E E
|---------------------------------|----------------|
|---------------------------------|----------------|
|---------------------------------|----------------|
|---------------------------------|----------------|
|-8-8-8-8-8-8-8-8-----------------|----------5-----|
|-----------------5-5-5-5-5-5-5-5-|-5--0-5-6---6-5-|


                                    PM  ~  PM
  S S S S S S S S S S S S S S S S   E E Q  E E E E
|---------------------------------|-------------------|
|---------------------------------|-------------------|
|---------------------------------|-------------------|
|---------------------------------|-------------------|
|-8-8-8-8-8-8-8-8-----------------|---5---------------|
|-----------------5-5-5-5-5-5-5-5-|-0---9--0-6-6-6----|


  Gtrs I, II
  PM                              ~    PM|   PM|
  E S S S S S S S S S S S S S S   Q  E E E E E E
|-------------------------------|----------------|
|-------------------------------|----------------|
|-------------------------------|----------------|
|-------------------------------|----------------|
|---8-8-8-8-8-8-----------------|----------5-----|
|-5-------------5-5-5-5-5-5-5-5-|-5--0-5-6---6-5-|


                                   6/4
                                    PM  PM    PM|     PM
  S S S S S S S S S S S S S S S S   E E E E E E E E E E E E
|---------------------------------|----------------------------|
|---------------------------------|----------------------------|
|---------------------------------|----------------------------|
|---------------------------------|-----------------3----------|
|-8-8-8-8-8-8-8-8-----------------|---5---5h6-----6------------|
|-----------------5-5-5-5-5-5-5-5-|-0---0-----0-3-----0-1p0----|


   Riff 2 (0:34)
   4/4
    Gtrs I, II
                                              PM       PM
    H    H      Q  Q  Q  Q    +Q   Q  Q  Q    Q  Q  Q  Q
||------------|-------------|---------------|-------------|
||o-----------|-------------|---------------|-------------|
||------------|-------------|---------------|-------------|
||------------|-------------|---------------|-------------|
||o-2----3----|-2--3--6--6--|-(6)--0--2--3--|-0--7--6--0--|
||--2----3----|-2--3--6--6--|-(6)--0--2--3--|-0--7--6--0--|


  Gtrs I, II
                                     PM            PM
  H    H      Q  Q  Q  Q    Q  Q  Q  Q    Q  Q  Q  Q
|-----------|-------------|-------------|--------------||
|-----------|-------------|-------------|-------------o||
|-----------|-------------|-------------|--------------||
|-----------|-------7-----|-------------|--------------||
|-2----3----|-2--3--8--6--|-6--7--6--0--|-1--0--0--0--o||
|-2----3----|-2--3--7--6--|-6--7--6--0--|-3--2--2--0---||


 Riff 3 (0:50)
 3/4
  Gtrs I, II
                          PM--|
  H.        E E E E E E   E E E E E E
|---------|-------------|-------------|
|---------|-------------|-------------|
|---------|-------------|-------------|
|---------|-------------|-------------|
|-2-------|-------2p0---|-------5p0h5-|
|-2-------|-0-2-3-----3-|-0-2-3-------|


  S S S S S S S S S S S S   S S S S S S S S S S S S
|-------------------------|-------------------------|
|-------------------------|-------------------------|
|-------------------------|-------------------------|
|-2-2-2-2-2-2-------------|-------------------------|
|-------------3-3-3-3-3-3-|-------------------------|
|-------------------------|-6-6-6-6-6-6-6-6-6-6-6-6-|


  Gtrs I, II
                              PM--------------------|
  S S S S S S S S S S S S   E E E S S S S S S   E E E E E E
|-------------------------|-------------------|-------------|
|-------------------------|-------------------|-------------|
|-------------------------|-------------------|-------------|
|-------------------------|-------------------|-------------|
|-------------------------|-------2-2-2-2-2-2-|-----3-2h3---|
|-3-3-3-3-3-3-3-3-3-3-3-3-|-0-2-3-------------|-0-2-------0-|


 3/4
  Gtrs I, II
                          PM--|
  H.        E E E E E E   E E E E E E
|---------|-------------|-------------|
|---------|-------------|-------------|
|---------|-------------|-------------|
|---------|-------------|-------------|
|-2-------|-------2p0---|-------5p0h5-|
|-2-------|-0-2-3-----3-|-0-2-3-------|


  E E  E  E E E   S S S S S S S S S S S S
|---------------|-------------------------|
|---------------|-------------------------|
|---------------|-------------------------|
|---------------|-------------------------|
|-7p0-[7]S8p0h8-|-------------------------|
|---------------|-6-6-6-6-6-6-6-6-6-6-6-6-|


  Gtrs I, II
                              PM------------------|   PM|
  S S S S S S S S S S S S   E E E S S S S S S   E E E E E E
|-------------------------|-------------------|-------------|
|-------------------------|-------------------|-------------|
|-------------------------|-------------------|-------------|
|-------------------------|-------------------|-------------|
|-------------------------|-------2-2-2-2-2-2-|-----3-------|
|-3-3-3-3-3-3-3-3-3-3-3-3-|-0-2-3-------------|-2-3---2-3-6-|


   Riff 4 (1:03)
    Gtr I
    PM--|   PM    PM--|   PM    PM--|    PM     PM--|     ~
    E E E E E E   E E E E E E   E E E  E E  E   E E E E E E
||--------------|-------------|---------------|-------------|
||o-------------|-------------|---------------|-------------|
||--------------|-------------|---------------|-------------|
||--------5---7-|-------8---7-|-------11---11-|-------------|
||o-------3---5-|-------6---5-|--------9----9-|-------6-----|
||--0-0-0---0---|-0-0-0---0---|-0-0-0----0----|-0-0-0---7-7-|
|
|   Gtr II
|   PM--|   PM    PM--|   PM    PM--|    PM     PM--|     ~
|   E E E E E E   E E E E E E   E E E  E E  E   E E E E E E
||--------------|-------------|---------------|-------------|
||o-------------|-------------|---------------|-------------|
||--------------|-------------|---------------|-------------|
||--------5---7-|-------8---7-|-------11----8-|-------------|
||o-------3---5-|-------6---5-|--------9----6-|-------6-----|
||--0-0-0---0---|-0-0-0---0---|-0-0-0----0----|-0-0-0---7-7-|


  Gtr I
  PM--------|                         PM--------|   PM--------------| ~~
  S S S S S S E E E   E  E +H         S S S S S S E E E   S S S S S S Q.
|-------------------|---------------|-------------------|--------------------||
|-------------------|---------------|-------------------|-------------------o||
|-------------------|---------------|-------------------|--------------------||
|-------------------|---------------|-------------------|--------------------||
|-------------------|-6-------------|-------------------|-------------------o||
|-6-6-6-6-6-6-0h6-9-|----9-(9)------|-1-1-1-1-1-1-0-1-4-|-5-5-5-5-5-5-5------||
|
| Gtr II
| PM--------|                         PM--------|   PM--------------| ~~
| S S S S S S E E E   Q.       Q.     S S S S S S E E E   S S S S S S Q.
|-------------------|---------------|-------------------|--------------------||
|-------------------|---------------|-------------------|-------------------o||
|-------------------|---------------|-------------------|--------------------||
|-------------------|----------0----|-------------------|--------------------||
|-------------------|-6-------------|-------------------|-------------------o||
|-6-6-6-6-6-6-0h6-9-|---------------|-1-1-1-1-1-1-0-1-4-|-5-5-5-5-5-5-5------||


 3/4
  Gtrs I, II
                          PM--|
  H.        E E E E E E   E E E E E E
|---------|-------------|-------------|
|---------|-------------|-------------|
|---------|-------------|-------------|
|---------|-------------|-------------|
|-2-------|-------2p0---|-------5p0h5-|
|-2-------|-0-2-3-----3-|-0-2-3-------|


  S S S S S S S S S S S S   S S S S S S S S S S S S
|-------------------------|-------------------------|
|-------------------------|-------------------------|
|-------------------------|-------------------------|
|-2-2-2-2-2-2-------------|-------------------------|
|-------------3-3-3-3-3-3-|-------------------------|
|-------------------------|-6-6-6-6-6-6-6-6-6-6-6-6-|


  Gtrs I, II
                              PM--------------------|
  S S S S S S S S S S S S   E E E S S S S S S   E E E E E E
|-------------------------|-------------------|-------------|
|-------------------------|-------------------|-------------|
|-------------------------|-------------------|-------------|
|-------------------------|-------------------|-------------|
|-------------------------|-------2-2-2-2-2-2-|-----3-2h3---|
|-3-3-3-3-3-3-3-3-3-3-3-3-|-0-2-3-------------|-0-2-------0-|


 3/4
  Gtrs I, II
                          PM--|
  H.        E E E E E E   E E E E E E
|---------|-------------|-------------|
|---------|-------------|-------------|
|---------|-------------|-------------|
|---------|-------------|-------------|
|-2-------|-------2p0---|-------5p0h5-|
|-2-------|-0-2-3-----3-|-0-2-3-------|


  E E  E  E E E   S S S S S S S S S S S S
|---------------|-------------------------|
|---------------|-------------------------|
|---------------|-------------------------|
|---------------|-------------------------|
|-7p0-[7]S8p0h8-|-------------------------|
|---------------|-6-6-6-6-6-6-6-6-6-6-6-6-|


  Gtrs I, II
                              PM------------------|   PM|
  S S S S S S S S S S S S   E E E S S S S S S   E E E E E E
|-------------------------|-------------------|-------------|
|-------------------------|-------------------|-------------|
|-------------------------|-------------------|-------------|
|-------------------------|-------------------|-------------|
|-------------------------|-------2-2-2-2-2-2-|-----3-------|
|-3-3-3-3-3-3-3-3-3-3-3-3-|-0-2-3-------------|-2-3---2-3-6-|


 Riff 5 (1:30)
 4/4
  Gtrs I, II
  S S S S S S S S S S S S S S S S
|---------------------------------|
|---------------------------------|
|---------------------------------|
|---------------------------------|
|-8-8-8-8-8-8-8-8-----------------|
|-----------------5-5-5-5-5-5-5-5-|


  ~    PM|   PM|
  Q  E E E E E E   S S S S S S S S S S S S S S S S
|----------------|----------------------------------|
|----------------|----------------------------------|
|----------------|----------------------------------|
|----------------|----------------------------------|
|----------5-----|-8-8-8-8-8-8-8-8------------------|
|-5--0-5-6---6-5-|-----------------5-5-5-5-5-5-5-5--|


    Gtrs I, II
    PM  PM    PM|       PM    PM---------
    E E E E E E E E   E E E E S S E E E
||------------------|-------------------|
||o-----------------|-------------------|
||------------------|-------------------|
||------------------|-3-----------------|
||o---5---5h6-----6-|-------------------|
||--0---0-----0-3---|---0-1-0-3-3-3-0-1-|


 -|   PM    PM|       PM    PM----|
  E E E E E E E E   E E E E S S S S E E  4x
|-----------------|----------------------||
|-----------------|---------------------o||
|-----------------|----------------------||
|-----------------|-3--------------------||
|---5---5h6-----6-|---------------------o||
|-0---0-----0-3---|---0-1-0-4-4-4-4-4p1--||


   Riff 6 (1:49) 'The Big One'
   4/4
    Gtrs I, II
    PM  PM    PM----------------|           ~~           PM|
    E E E E E E S S S S   S S S S E E E  E  Q    E E E E E E E E
||----------------------|----------------------|-----------------|
||o---------------------|----------------------|-----------------|
||----------------------|----------------------|-----------------|
||----------------------|----------------------|-----------------|
||o---5---5h6-----------|----------------------|-------6---------|
||--0---0-----0-9-9-9-9-|-9-9-9-9-0h9-9h10-10--|-0h6h9---9-7-0h6-|


  Gtrs I, II
      PM  PM----|       PM  PM    PM----------------|         PM
  E E E E S S S S E E   E E E E E E S S S S   S S S S E E E E E E
|---------------------|---------------------|---------------------|
|---------------------|---------------------|---------------------|
|---------------------|---------------------|---------------------|
|---------------------|---------------------|---------------------|
|---5---0-------------|---5---5h6-----------|---------------6---0-|
|-9---9---6-6-6-6-6h9-|-0---0-----0-6-6-6-6-|-6-6-6-6-0h6h9---9---|


 4/4
  Gtrs I, II
                  PM--|     PM--|   PM|
  S S S S S S S S E E E E   E E E E E E Q
|-------------------------|-----------------||
|-------------------------|----------------o||
|-------------------------|-----------------||
|-------------------------|-----------------||
|-----------------------3-|-------6--------o||
|-3-3-3-3-3-3-3-3-0-3-6---|-0-3-5---3-5-1---||


   Riff 2a (2:05)
   4/4
    Gtrs I, II
                                              PM       PM
    H    H      Q  Q  Q  Q    +Q   Q  Q  Q    Q  Q  Q  Q
||------------|-------------|---------------|-------------|
||o-----------|-------------|---------------|-------------|
||------------|-------------|---------------|-------------|
||------------|-------------|---------------|-------------|
||o-2----3----|-2--3--6--6--|-(6)--0--2--3--|-0--7--6--0--|
||--2----3----|-2--3--6--6--|-(6)--0--2--3--|-0--7--6--0--|


  1.
  Gtrs I, II
                                     PM            PM
  H    H      Q  Q  Q  Q    Q  Q  Q  Q    Q  Q  Q  Q
|-----------|-------------|-------------|--------------||
|-----------|-------------|-------------|-------------o||
|-----------|-------------|-------------|--------------||
|-----------|-------------|-------------|--------------||
|-2----3----|-2--3--3--6--|-6--7--6--0--|-1--0--0--0--o||
|-2----3----|-2--3--3--6--|-6--7--6--0--|-3--2--2--0---||


  2.
  Gtrs I, II
                                     PM            PM
  H    H      Q  Q  Q  Q    Q  Q  Q  Q    Q  Q  Q  Q
|-----------|-------------|-------------|-------------|
|-----------|-------------|-------------|-------------|
|-----------|-------------|-------------|-------------|
|-----------|-------------|-------------|-------------|
|-2----3----|-2--3--3--6--|-6--7--6--0--|-1--0--0--1--|
|-2----3----|-2--3--3--6--|-6--7--6--0--|-3--2--2--1--|


 Riff 7 (2:21)
  Gtrs I, II
    PM|   PM|           PM--|   PM~    PM  PM  PM  PM        PM|   PM  PM
              |-3-|
  E E E E E E E E E   E E E E E E Q    E E E E E E E E   E E E E E E E E
|-------------------|----------------|-----------------|------------------|
|-------------------|----------------|-----------------|------------------|
|-------------------|----------------|-----------------|------------------|
|-------------------|----------------|-----------------|------------------|
|-------0-3-7-0h3h7-|-8-7-7-7-7p6-6--|---6---7---9---3-|---6-----3---3-2--|
|-0-3-7-------------|----------------|-0---0---0---0---|-0---0-6---0------|


  Gtrs I, II
                                    ~
  S S S S S S S S S S S S S S S S   Q  E E E E E E
|---------------------------------|----------------|
|---------------------------------|----------------|
|---------------------------------|----------------|
|---------------------------------|----------------|
|-3-3-3-3-3-3-3-3-----------------|----------3-----|
|-----------------6-6-6-6-6-6-6-6-|-6--0-3-6---6-3-|


  S S S S S S S S S S S S S S S S   E E S S S S E E Q
|---------------------------------|-------------------------|
|---------------------------------|-------------------------|
|---------------------------------|-------------------------|
|---------------------------------|-------------------------|
|-2-2-2-2-2-2-2-2-----------------|-------------------------|
|-----------------3-3-3-3-3-3-3-3-|-3h6-6-6-6-6-6S7-7b7.5---|


  Gtrs I, II
    PM|   PM|           PM--|   PM~    PM|   PM  PM  PM    PM  PM  PM  PM
              |-3-|
  E E E E E E E E E   E E E E E E Q    E E E E E E E E   E E E E E E E E
|-------------------|----------------|-----------------|------------------|
|-------------------|----------------|-----------------|------------------|
|-------------------|----------------|-----------------|------------------|
|-------------------|----------------|-----------------|------------------|
|-------0-3-7-0h3h7-|-8-7-7-7-7p6-6--|-----6---7---9---|-3---6---3---3-2--|
|-0-3-7-------------|----------------|-0-0---0---0---0-|---0---0---0------|


  Gtrs I, II
                                    ~
  S S S S S S S S S S S S S S S S   Q  E E E E E E
|---------------------------------|----------------|
|---------------------------------|----------------|
|---------------------------------|----------------|
|---------------------------------|----------------|
|-3-3-3-3-3-3-3-3-----------------|----------3-----|
|-----------------6-6-6-6-6-6-6-6-|-6--0-3-6---6-3-|


  S S S S S S S S S S S S S S S S   E E S S S S E E Q
|---------------------------------|-------------------------|
|---------------------------------|-------------------------|
|---------------------------------|-------------------------|
|---------------------------------|-------------------------|
|-2-2-2-2-2-2-2-2-----------------|-------------------------|
|-----------------3-3-3-3-3-3-3-3-|-3h6-6-6-6-6-6S7-7b7.5---|


   Riff 8 (2:39)
    Gtrs I, II
                                      PM      PM    PM      PM  PM|     ~
    E   +Q   E E E E E   E E E E E Q  E   E E E E E E E E   E E E E E E Q
||---------------------|----------------|-----------------|-----------------|
||o--------------------|----------------|-----------------|-----------------|
||---------------------|----------------|-----------------|-----------------|
||---------------------|---------8-7----|-----------------|-----------------|
||o--------------------|-3-------6-5----|-6-5---5-4---4-3-|---1-----0-1-4---|
||--6b7r(6)--0---0h5h6-|---6p5-0------0-|-6-5-0-5-4-0-4-3-|-0-1-0-0-0-1-4---|


  Gtrs I, II
                             PM    PM|
  E   +Q   E E E E E   E E E E E E E E
|--------------------|-----------------|
|--------------------|-----------------|
|--------------------|-----------------|
|--------------------|---------7-8-----|
|--------------------|-3-------5-6-----|
|-6b7r(6)--0-9-0-5h7-|---6p5-0-----0-0-|


    PM|   PM|           PM  PM      PM
              |-3-|
  E E E E E E E E E   E E E E E E E E
|-------------------|-------------------||
|-------------------|------------------o||
|-------------------|-------------------||
|-------------------|-6-----------------||
|-------------------|-----6---6p5------o||
|-6-6-6-9-9-9-0h6h9-|---6---9-----9-0---||


 Riff 7a (2:56)
  Gtrs I, II
    PM|   PM|           PM--|   PM~    PM  PM  PM  PM        PM|   PM  PM
              |-3-|
  E E E E E E E E E   E E E E E E Q    E E E E E E E E   E E E E E E E E
|-------------------|----------------|-----------------|------------------|
|-------------------|----------------|-----------------|------------------|
|-------------------|----------------|-----------------|------------------|
|-------------------|----------------|-----------------|------------------|
|-------0-3-7-0h3h7-|-8-7-7-7-7p6-6--|---6---7---9---3-|---6-----3---3-2--|
|-0-3-7-------------|----------------|-0---0---0---0---|-0---0-6---0------|


  Gtrs I, II
                                    ~
  S S S S S S S S S S S S S S S S   Q  E E E E E E
|---------------------------------|----------------|
|---------------------------------|----------------|
|---------------------------------|----------------|
|---------------------------------|----------------|
|-3-3-3-3-3-3-3-3-----------------|----------3-----|
|-----------------6-6-6-6-6-6-6-6-|-6--0-3-6---6-3-|


  S S S S S S S S S S S S S S S S   E E S S S S E E Q
|---------------------------------|-------------------------|
|---------------------------------|-------------------------|
|---------------------------------|-------------------------|
|---------------------------------|-------------------------|
|-2-2-2-2-2-2-2-2-----------------|-------------------------|
|-----------------3-3-3-3-3-3-3-3-|-3h6-6-6-6-6-6S7-7b7.5---|


  Gtrs I, II
    PM|   PM|           PM--|   PM ~~~   PM|   PM  PM  PM    PM  PM  PM  PM
              |-3-|
  E E E E E E E E E   E E E E E E  Q     E E E E E E E E   E E E E E E E E
|-------------------|------------------|-----------------|------------------|
|-------------------|------------------|-----------------|------------------|
|-------------------|------------------|-----------------|------------------|
|-------------------|------------------|-----------------|------------------|
|-------0-3-7-0h3h7-|-8-7-7-7-7p6-[6]--|-----6---7---9---|-3---6---3---3-2--|
|-0-3-7-------------|------------------|-0-0---0---0---0-|---0---0---0------|


  Gtrs I, II
                                    ~
  S S S S S S S S S S S S S S S S   Q  E E E E E E
|---------------------------------|----------------|
|---------------------------------|----------------|
|---------------------------------|----------------|
|---------------------------------|----------------|
|-3-3-3-3-3-3-3-3-----------------|----------3-----|
|-----------------6-6-6-6-6-6-6-6-|-6--0-3-6---6-3-|


                                   3/4
                                            PM|           PM|
  S S S S S S S S S S S S S S S S   E E E E E E   E E E E E E
|---------------------------------|-------------|--------------|
|---------------------------------|-------------|--------------|
|---------------------------------|-------------|--------------|
|---------------------------------|-------------|--------------|
|-2-2-2-2-2-2-2-2-----------------|-------3-----|-------6------|
|-----------------3-3-3-3-3-3-3-3-|-0h3h6---6-3-|-0h6h9---9-7--|


   Riff 9 (3:13)
    Gtr I
    PM--------|                               PM--------------|   PM|
    S S S S S S E E E   E  E +H         +Q.   S S S S S S   E E E E E E
||--------------------|---------------|-------------------|--------------|
||o-------------------|---------------|-------------------|--------------|
||--------------------|---------------|-------------------|--------------|
||--------------------|---------------|-------------------|-----------6--|
||o-------------------|-6-------------|-------------------|-----5--------|
||--6-6-6-6-6-6-0h6-9-|----9-(9)------|-(9)---4-4-4-4-4-4-|-0-3---0-4----|
|
|   Gtr II
|   PM--------|                               PM--------------|   PM|
|   S S S S S S E E E   Q.       Q.     +Q.   S S S S S S   E E E E E E
||--------------------|---------------|-------------------|--------------|
||o-------------------|---------------|-------------------|--------------|
||--------------------|---------------|-------------------|--------------|
||--------------------|----------0----|-(0)---------------|-----------6--|
||o-------------------|-6-------------|-------------------|-----5--------|
||--6-6-6-6-6-6-0h6-9-|---------------|-------4-4-4-4-4-4-|-0-3---0-4----|


  1.
  Gtr I
  PM--------|                         PM----|
  S S S S S S E E E   E  E +H         S S S S E  E  +Q     E E E +Q.
|-------------------|---------------|--------------------|--------------||
|-------------------|---------------|--------------------|-------------o||
|-------------------|---------------|--------------------|--------------||
|-------------------|---------------|--------------------|--------------||
|-------------------|-6-------------|--------------------|-----6-(6)---o||
|-6-6-6-6-6-6-0h6-9-|----9-(9)------|-6-6-6-6-7--7--(7)--|-3-6----------||
|
| Gtr II
| PM--------|
| S S S S S S E E E   Q.       Q.     E   E   E +Q.        E E E +Q.
|-------------------|---------------|--------------------|--------------||
|-------------------|---------------|--------------------|-------------o||
|-------------------|---------------|--------------------|--------------||
|-------------------|----------0----|---------9-(9)------|-6---6-(6)----||
|-------------------|-6-------------|-----6--------------|---8---------o||
|-6-6-6-6-6-6-0h6-9-|---------------|-6------------------|--------------||


  2.
  Gtr I
  PM--------|
  S S S S S S E E E   E  E +H         E E E E E E   E E E E  Q
|-------------------|---------------|-------------|--------------|
|-------------------|---------------|-------------|--------------|
|-------------------|---------------|-------------|--------------|
|-------------------|---------------|-------------|---------[8]--|
|-------------------|-6-------------|-2S5-5-5-5-5-|-5-5S6-6------|
|-6-6-6-6-6-6-0h6-9-|----9-(9)------|-------------|--------------|
|
| Gtr II
| PM--------|
| S S S S S S E E E   Q.       Q.     E E E E E E   E E E E  Q
|-------------------|---------------|-------------|--------------|
|-------------------|---------------|-------------|--------------|
|-------------------|---------------|-------------|--------------|
|-------------------|----------0----|-------------|--------------|
|-------------------|-6-------------|-2S5-5-5-5-5-|-5-5S6-6-[6]--|
|-6-6-6-6-6-6-0h6-9-|---------------|-------------|--------------|


    Gtr I
    PM--|   PM    PM--|   PM    PM--|    PM     PM--|     ~
    E E E E E E   E E E E E E   E E E  E E  E   E E E E E E
||--------------|-------------|---------------|-------------|
||o-------------|-------------|---------------|-------------|
||--------------|-------------|---------------|-------------|
||--------5---7-|-------8---7-|-------11---11-|-------------|
||o-------3---5-|-------6---5-|--------9----9-|-------6-----|
||--0-0-0---0---|-0-0-0---0---|-0-0-0----0----|-0-0-0---7-7-|
|
|   Gtr II
|   PM--|   PM    PM--|   PM    PM--|    PM     PM--|     ~
|   E E E E E E   E E E E E E   E E E  E E  E   E E E E E E
||--------------|-------------|---------------|-------------|
||o-------------|-------------|---------------|-------------|
||--------------|-------------|---------------|-------------|
||--------5---7-|-------8---7-|-------11----8-|-------------|
||o-------3---5-|-------6---5-|--------9----6-|-------6-----|
||--0-0-0---0---|-0-0-0---0---|-0-0-0----0----|-0-0-0---7-7-|


  Gtr I
  PM--------|                         PM--------|   PM--------------| ~~
  S S S S S S E E E   E  E +H         S S S S S S E E E   S S S S S S Q.
|-------------------|---------------|-------------------|--------------------||
|-------------------|---------------|-------------------|-------------------o||
|-------------------|---------------|-------------------|--------------------||
|-------------------|---------------|-------------------|--------------------||
|-------------------|-6-------------|-------------------|-------------------o||
|-6-6-6-6-6-6-0h6-9-|----9-(9)------|-1-1-1-1-1-1-0-1-4-|-5-5-5-5-5-5-5------||
|
| Gtr II
| PM--------|                         PM--------|   PM--------------| ~~
| S S S S S S E E E   Q.       Q.     S S S S S S E E E   S S S S S S Q.
|-------------------|---------------|-------------------|--------------------||
|-------------------|---------------|-------------------|-------------------o||
|-------------------|---------------|-------------------|--------------------||
|-------------------|----------0----|-------------------|--------------------||
|-------------------|-6-------------|-------------------|-------------------o||
|-6-6-6-6-6-6-0h6-9-|---------------|-1-1-1-1-1-1-0-1-4-|-5-5-5-5-5-5-5------||


 Riff 5a (3:40)
 4/4
  Gtrs I, II
  S S S S S S S S S S S S S S S S
|---------------------------------|
|---------------------------------|
|---------------------------------|
|---------------------------------|
|-8-8-8-8-8-8-8-8-----------------|
|-----------------5-5-5-5-5-5-5-5-|


  ~    PM|   PM|
  Q  E E E E E E   S S S S S S S S S S S S S S S S
|----------------|----------------------------------|
|----------------|----------------------------------|
|----------------|----------------------------------|
|----------------|----------------------------------|
|----------5-----|-8-8-8-8-8-8-8-8------------------|
|-5--0-5-6---6-5-|-----------------5-5-5-5-5-5-5-5--|


    1.,2.,3.
    Gtrs I, II
    PM  PM    PM|       PM    PM---------
    E E E E E E E E   E E E E S S E E E
||------------------|-------------------|
||o-----------------|-------------------|
||------------------|-------------------|
||------------------|-3-----------------|
||o---5---5h6-----6-|-------------------|
||--0---0-----0-3---|---0-1-0-3-3-3-0-1-|


 -|   PM    PM|       PM    PM----|
  E E E E E E E E   E E E E S S S S E E  4x
|-----------------|----------------------||
|-----------------|---------------------o||
|-----------------|----------------------||
|-----------------|-3--------------------||
|---5---5h6-----6-|---------------------o||
|-0---0-----0-3---|---0-1-0-4-4-4-4-4p1--||


  4.
  Gtrs I, II
  PM  PM    PM|       PM    PM----------|   PM    PM|       PM
  E E E E E E E E   E E E E S S E E E   E E E E E E E E   E E E E Q  Q
|-----------------|-------------------|-----------------|----------------|
|-----------------|-------------------|-----------------|----------------|
|-----------------|-------------------|-----------------|----------------|
|-----------------|-3-----------------|-----------------|-3--------------|
|---5---5h6-----6-|-------------------|---5---5h6-----6-|---------4------|
|-0---0-----0-3---|---0-1-0-3-3-3-0-1-|-0---0-----0-3---|---0-1-0-4------|


   Riff 8a (3:59)
    Gtrs I, II
                                      PM      PM    PM      PM  PM|     ~
    E   +Q   E E E E E   E E E E E Q  E   E E E E E E E E   E E E E E E Q
||---------------------|----------------|-----------------|-----------------|
||o--------------------|----------------|-----------------|-----------------|
||---------------------|----------------|-----------------|-----------------|
||---------------------|---------8-7----|-----------------|-----------------|
||o--------------------|-3-------6-5----|-6-5---5-4---4-3-|---1-----0-1-4---|
||--6b7r(6)--0---0h5h6-|---6p5-0------0-|-6-5-0-5-4-0-4-3-|-0-1-0-0-0-1-4---|


  Gtrs I, II
                             PM    PM|
  E   +Q   E E E E E   E E E E E E E E
|--------------------|-----------------|
|--------------------|-----------------|
|--------------------|-----------------|
|--------------------|---------7-8-----|
|--------------------|-3-------5-6-----|
|-6b7r(6)--0-9-0-5h7-|---6p5-0-----0-0-|


    PM|   PM|           PM  PM      PM
              |-3-|
  E E E E E E E E E   E E E E E E E E
|-------------------|-------------------||
|-------------------|------------------o||
|-------------------|-------------------||
|-------------------|-6-----------------||
|-------------------|-----6---6p5------o||
|-6-6-6-9-9-9-0h6h9-|---6---9-----9-0---||


  Gtrs I, II
               PM
  E   +Q   E E E E E    E E E E E E Q     W          W
|---------------------|-----------------|----------|------*|
|---------------------|-----------------|----------|------*|
|---------------------|-----------------|----------|------*|
|---------------------|-----------8-7---|----------|------*|
|---------------------|---3-------6-5---|----------|------*|
|-6b7r(6)--0---0-0h5h=|=6---6p5-0-------|----------|------*|

End.
comments
We did not receive enough feedback on this tab! Please rate:
print report bad tab
1 2 3 4 5
I want to post or [tab]
guest
You may want to rate the tab now too:
select rating
Please do not post tabs as comments. Select "correction" instead!