Oops, an error
Loading. Please wait.

Our Evolutionary Architecture Tab

21 views 1 this week
no commentswrite comment
1 2 3 4 5
please rate
Autoscroll
+/-
esc
set tempo
stop
Contributor
WARNING: You are trying to view
                                    content from Ultimate-Guitar.com
                                    in an unauthorized application,
                                    which is prohibited.

                                    Please use an official Ultimate
                                    Guitar Tabs application for iPhone,
                                    iPad or Android to access legitimate
                                    chords, guitar, bass, and drum tabs
                                    from Ultimate-Guitar.com database.

                                    Type "ultimate guitar tabs" in Apple
                                    App Store's or Android Market's
                                    search to find the application.
Psycroptic - 'Our Evolutionary Architecture'
Symbols Of Failure (2006)
Neurotic Records

________________________________________________________________________________


Gtr I (D A D G B E) - 'Joe Haley'
Gtr II (D A D G B E) - 'Joe Haley'

 Riff 1 (0:00)
  Q=220
 3/4
  Gtrs I, II
                                    PM--------|
  H.        Q.   Q.     Q.   Q.     E E E E E E
|---------|-----------|-----------|-------------|
|---------|-----------|-----------|-------------|
|---------|-----------|-----------|-------------|
|---------|-8----7----|-3---------|-------------|
|-0-------|-6----5----|-1----4----|-------------|
|-0-------|-----------|------4----|-0-1-0-4-0-1-|


  Gtrs I, II
                               PM|
                                     |---3---|
  H.        Q.   Q.     Q.   E E E   Q.  Q.  Q.
|---------|-----------|------------|--------------|
|---------|-----------|------------|--------------|
|---------|-----------|------------|--------------|
|---------|-5----8----|-7----3-----|-6------------|
|-0-------|-3----6----|-5----1-----|-4---5---1----|
|-0-------|-5----8----|--------4-1-|-----5---1----|


  Gtrs I, II
                                    PM--------|
  H.        Q.   Q.     Q.   Q.     E E E E E E
|---------|-----------|-----------|--------------|
|---------|-----------|-----------|--------------|
|---------|-----------|-----------|--------------|
|---------|-8----7----|-3---------|--------------|
|-0-------|-6----5----|-1----4----|--------------|
|-0-------|-----------|------4----|-0-1-0-4-0-1--|


  Gtrs I, II
                                        PM  PM
                        |-3-|
  H.        Q.   Q.     E E E E E E E   E E E E Q
|---------|-----------|---------------|------------|
|---------|-----------|---------------|------------|
|---------|-----------|---------------|------------|
|---------|-5----8----|-------5-------|---6---3----|
|-0-------|-3----6----|-5h6h9---9-6-5-|-0-4-0-1----|
|-0-------|-5----8----|---------------|------------|


  Gtrs I, II
                                      PM--------|
  Q.   Q.     Q.   Q.     Q.   Q.     E E E E E E
|-----------|-----------|-----------|--------------|
|-----------|-----------|-----------|--------------|
|-----------|-----------|-----------|--------------|
|-----------|-8----7----|-3---------|--------------|
|------0----|-6----5----|-1----4----|--------------|
|------0----|-----------|------4----|-0-1-0-4-0-1--|


  Gtrs I, II
                               PM|
                                     |---3---|
  H.        Q.   Q.     Q.   E E E   Q.  Q.  Q.
|---------|-----------|------------|--------------|
|---------|-----------|------------|--------------|
|---------|-----------|------------|--------------|
|---------|-5----8----|-7----3-----|-6------------|
|-0-------|-3----6----|-5----1-----|-4---5---1----|
|-0-------|-5----8----|--------4-1-|-----5---1----|


  Gtrs I, II
                                    PM--------|
  H.        Q.   Q.     Q.   Q.     E E E E E E
|---------|-----------|-----------|--------------|
|---------|-----------|-----------|--------------|
|---------|-----------|-----------|--------------|
|---------|-8----7----|-3---------|--------------|
|-0-------|-6----5----|-1----4----|--------------|
|-0-------|-----------|------4----|-0-1-0-4-0-1--|


  Gtrs I, II
                                        PM  PM
                        |-3-|
  H.        Q.   Q.     E E E E E E E   E E E E E E
|---------|-----------|---------------|-------------|
|---------|-----------|---------------|-------------|
|---------|-----------|---------------|-------------|
|---------|-5----8----|-------5-------|-------------|
|-0-------|-3----6----|-5h6h9---9-6-5-|-0-4-0-1p0---|
|-0-------|-5----8----|---------------|-----------4-|


   Riff 2 (0:26)
    Gtrs I, II
    PM--------|                 PM--------|
    E E E E E E   E E E E E E   E E E E E E   E E E E E E
||--------------|-------------|-------------|-------------|
||o-------------|-------------|-------------|-------------|
||--------------|-------------|-------------|-------------|
||--------------|-6-----------|-------------|-6-----------|
||o-------0-3-4-|---3p0-3p0---|-------0-3-4-|---3p0-3p0---|
||--0-4-7-------|-----------7-|-0-4-7-------|-----------7-|


  Gtrs I, II
  PM--------|                 PM--------|
                                                  |-3-|
  E E E E E E   E E E E E E   E E E E E E   E E E E E E E
|-------------|-------------|-------------|----------------||
|-------------|-------------|-------------|---------------o||
|-------------|-------------|-------------|----------------||
|-------------|-6-----------|-------------|-6p0h3----------||
|-------0-3-4-|---3p0-3p0---|-------0-4-8-|-------7p3p0---o||
|-0-4-7-------|-----------7-|-0-4-7-------|-------------7--||


   Riff 3 (0:38)
    Gtrs I, II
         PM--------|         ~~             PM    PM  PM
    Q.   S S S S S S   E E E Q.     E E E E E E   E E E E E E
||-------------------|------------|-------------|--------------|
||o------------------|------------|-------------|--------------|
||-------------------|------------|-------------|--------------|
||--5----------------|-5s6-6-6----|-------6---5-|---3---6------|
||o-3----3-3-3-3-3-3-|-3s4-4-4----|-0h3h4---3---|-3---3---3p0--|
||-------------------|------------|-------------|--------------|


  Gtrs I, II
  PM--------------------|         ~~           ~~       PM|   PM|
  S S S S S S S S S S S S   E E E Q.     E E E Q.     E E E E E E
|-------------------------|------------|------------|--------------||
|-------------------------|------------|------------|-------------o||
|-------------------------|------------|------------|--------------||
|-------------------------|-5s6-6-6----|-6s9-9-9----|-7-----6------||
|-3-3-3-3-3-3-3-3-3-3-3-3-|-3s4-4-4----|-4s7-7-7----|---8-4---8-0-o||
|-------------------------|------------|------------|--------------||


 3/8     3/4
  Gtrs I, II
    PM|                                         PM  PM
                                |-3-|
  E E E   H.        Q.   Q.     E E E E E E E   E E E E Q
|-------|---------|-----------|---------------|-------------|
|-------|---------|-----------|---------------|-------------|
|-------|---------|-----------|---------------|-------------|
|-------|---------|-5----8----|-------5-------|---6---3-----|
|-7-----|-0-------|-3----6----|-5h6h9---9-6-5-|-0-4-0-1-----|
|---8-1-|-0-------|-5----8----|---------------|-------------|


 Riff 4 (0:55)
  Gtrs I, II
  PM--|   PM    PM--|   PM    PM--|   PM
                                                  |-3-|
  E E E E E E   E E E E E E   E E E E E E   E E E E E E E
|-------------|-------------|-------------|---------------|
|-------------|-------------|-------------|---------------|
|-------------|-------------|-------------|---------------|
|-------------|-------------|-------------|---------------|
|-------------|-------------|-------------|---------------|
|-0-1-0-4-0-1-|-0-1-0-4-0-1-|-0-1-0-4-0-1-|-0-1-4-4h5p4-1-|


  Gtrs I, II
                                   PM----|
  H.        +H.        Q.   Q.     E E E E Q
|---------|----------|-----------|-------------|
|---------|----------|-----------|-------------|
|---------|----------|-----------|-------------|
|---------|----------|-----------|-------------|
|-0-------|-(0)------|-0----1----|-------------|
|-0-------|-(0)------|-4----1----|-0-1-4-5-----|


    Gtrs I, II
    PM--|   PM    PM--|   PM    PM--|   PM    PM--|       PM
                                                    |-3-|
    E E E E E E   E E E E E E   E E E E E E   E E E E E E E  3x
||--------------|-------------|-------------|----------------||
||o-------------|-------------|-------------|---------------o||
||--------------|-------------|-------------|----------------||
||--------------|-------------|-------------|----------------||
||o-------------|-------------|-------------|---------------o||
||--0-1-0-4-0-1-|-0-1-0-4-0-1-|-0-1-0-4-0-1-|-0-1-4-4h5p4-1--||


  Gtrs I, II
  PM--|   PM    PM--|   PM
  E E E E E E   E E E E E E   H.        Q.   Q.
|-------------|-------------|---------|------------|
|-------------|-------------|---------|------------|
|-------------|-------------|---------|------------|
|-------------|-------------|---------|------------|
|-------------|-------------|-0-------|-0----1-----|
|-0-1-0-4-0-1-|-0-1-0-4-0-1-|-0-------|-4----1-----|


   Riff 5 (1:13)
    Gtrs I, II
    PM--|   PM    PM   PM--------|                          ~~~
    E E E E E E   E Q  S S S S S S   E E E E E  E    E E E  Q.
||--------------|------------------|---------------|--------------|
||o-------------|------------------|---------------|--------------|
||--------------|------------------|---------------|--------------|
||--------------|------------------|---------------|--------------|
||o-------------|------------------|-------3---[3]-|-------[6]----|
||--0-1-0-4-0-1-|-0----0-0-0-0-0-0-|-0-4-5---5-----|-0-6-5--------|


  1.
  Gtrs I, II
  PM--|   PM    PM   PM----------------|   PM|
                                                 |-3-|
  E E E E E E   E Q  S S S S S S   E E E E E E   E E E E E E E
|-------------|------------------|-------------|-----------------||
|-------------|------------------|-------------|----------------o||
|-------------|------------------|-------------|-----------------||
|-------------|------------------|-------------|-----------------||
|-------------|------------------|-------5-----|-0h5-6----------o||
|-0-1-0-4-0-1-|-0----0-0-0-0-0-0-|-0-4-5---4-5-|-------0h5-6-4---||


  2.
  Gtrs I, II
  PM--|   PM            ~~    PM--------|
                |---3---|                   |-3-|
  E E E E E E   Q.  Q.  Q.    E E E E E E   E E E E E E E
|-------------|-------------|-------------|---------------|
|-------------|-------------|-------------|---------------|
|-------------|-------------|-------------|-5h7h8---------|
|-------------|-------------|-----4-5-7-8-|-------5-7-8---|
|-------------|-----0-------|-5-6---------|-------------6-|
|-0-1-0-4-0-1-|-0---4---5---|-------------|---------------|


    Gtrs I, II
    PM--|   PM    PM   PM--------|                          ~~~
    E E E E E E   E Q  S S S S S S   E E E E E  E    E E E  Q.
||--------------|------------------|---------------|--------------|
||o-------------|------------------|---------------|--------------|
||--------------|------------------|---------------|--------------|
||--------------|------------------|---------------|--------------|
||o-------------|------------------|-------3---[3]-|-------[6]----|
||--0-1-0-4-0-1-|-0----0-0-0-0-0-0-|-0-4-5---5-----|-0-6-5--------|


  1.
  Gtrs I, II
  PM--|   PM    PM   PM----------------|   PM|
                                                 |-3-|
  E E E E E E   E Q  S S S S S S   E E E E E E   E E E E E E E
|-------------|------------------|-------------|-----------------||
|-------------|------------------|-------------|----------------o||
|-------------|------------------|-------------|-----------------||
|-------------|------------------|-------------|-----------------||
|-------------|------------------|-------5-----|-0h5-6----------o||
|-0-1-0-4-0-1-|-0----0-0-0-0-0-0-|-0-4-5---4-5-|-------0h5-6-4---||


  2.
  Gtrs I, II
  PM--|   PM            ~~    PM--|                      ~~~
                |---3---|
  E E E E E E   Q.  Q.  Q.    E E E S S S S S S   E E E  Q.
|-------------|-------------|-------------------|-------------|
|-------------|-------------|-------------------|-------------|
|-------------|-------------|-------------5h7h8-|-------------|
|-------------|-------------|-----4-5h7h8-------|-5-7-8-------|
|-------------|-----0-------|-5-6---------------|-------[6]---|
|-0-1-0-4-0-1-|-0---4---5---|-------------------|-------------|


    Gtrs I, II
    PM--------|                 PM--------|
    E E E E E E   E E E E E E   E E E E E E   E E E E E E
||--------------|-------------|-------------|-------------|
||o-------------|-------------|-------------|-------------|
||--------------|-------------|-------------|-------------|
||--------------|-6-----------|-------------|-6-----------|
||o-------0-3-4-|---3p0-3p0---|-------0-3-4-|---3p0-3p0---|
||--0-4-7-------|-----------7-|-0-4-7-------|-----------7-|


  Gtrs I, II
  PM--------|                 PM--------|
                                                  |-3-|
  E E E E E E   E E E E E E   E E E E E E   E E E E E E E
|-------------|-------------|-------------|----------------||
|-------------|-------------|-------------|---------------o||
|-------------|-------------|-------------|----------------||
|-------------|-6-----------|-------------|-6p0h3----------||
|-------0-3-4-|---3p0-3p0---|-------0-4-8-|-------7p3p0---o||
|-0-4-7-------|-----------7-|-0-4-7-------|-------------7--||


  Gtr I
       PM--------|         ~~             PM    PM  PM
  Q.   S S S S S S   E E E Q.     E E E E E E   E E E E E E
|------------------|------------|-------------|-------------|
|------------------|------------|-------------|-------------|
|------------------|------------|-------------|-------------|
|-5----------------|-5s6-6-6----|-------6---5-|---3---6-----|
|-3----3-3-3-3-3-3-|-3s4-4-4----|-0h3h4---3---|-3---3---3p0-|
|------------------|------------|-------------|-------------|
|
| Gtr II
|                                         PM    PM  PM
| H.                 H.           E E E E E E   E E E E E E
|------------------|------------|-------------|-------------|
|------------------|------------|-------------|-------------|
|------------------|------------|-------------|-------------|
|------------------|------------|-------6---5-|---3---6-----|
|------------------|------------|-0h3h4---3---|-3---3---3p0-|
|------------------|------------|-------------|-------------|


  Gtrs I, II
  PM--------------------|         ~~           ~~       PM|   PM|
  S S S S S S S S S S S S   E E E Q.     E E E Q.     E E E E E E
|-------------------------|------------|------------|-------------|
|-------------------------|------------|------------|-------------|
|-------------------------|------------|------------|-------------|
|-------------------------|-5s6-6-6----|-6s9-9-9----|-7-----6-----|
|-3-3-3-3-3-3-3-3-3-3-3-3-|-3s4-4-4----|-4s7-7-7----|---8-4---8-0-|
|-------------------------|------------|------------|-------------|


  Gtrs I, II
       PM--------|         ~~             PM    PM  PM
  Q.   S S S S S S   E E E Q.     E E E E E E   E E E E E E
|------------------|------------|-------------|-------------|
|------------------|------------|-------------|-------------|
|------------------|------------|-------------|-------------|
|-5----------------|-5s6-6-6----|-------6---5-|---3---6-----|
|-3----3-3-3-3-3-3-|-3s4-4-4----|-0h3h4---3---|-3---3---3p0-|
|------------------|------------|-------------|-------------|


                                                                   3/8
  Gtr I
  PM--------------------|         ~~           ~~       PM|   PM|
  S S S S S S S S S S S S   E E E Q.     E E E Q.     E E E E E E   E E E
|-------------------------|------------|------------|-------------|--------|
|-------------------------|------------|------------|-------------|--------|
|-------------------------|------------|------------|-------------|--------|
|-------------------------|-5s6-6-6----|-6s9-9-9----|-7-----6-----|--------|
|-3-3-3-3-3-3-3-3-3-3-3-3-|-3s4-4-4----|-4s7-7-7----|---8-4---8-0-|-7------|
|-------------------------|------------|------------|-------------|---8-7--|
|
| Gtr II
| PM--------------------|         ~~           ~~       PM|   PM|
| S S S S S S S S S S S S   E E E Q.     E E E Q.     E E E E E E   E E E
|-------------------------|------------|------------|-------------|--------|
|-------------------------|------------|------------|-------------|--------|
|-------------------------|------------|------------|-------------|--------|
|-------------------------|-5s6-6-6----|-6s9-9-9----|-7-----6-----|--------|
|-3-3-3-3-3-3-3-3-3-3-3-3-|-3s4-4-4----|-4s7-7-7----|---8-4---8-0-|-7-6-5--|
|-------------------------|------------|------------|-------------|--------|


 Riff 6 (2:05)
 4/4
  Gtrs I, II
  PM------------|   PM--|         PM  PM|
  S S S S S S S S E E E  E   E E  E E E  E E E
|--------------------------|-------------------|
|--------------------------|-------------------|
|--------------------------|-------------------|
|--------------------------|-------------------|
|--------------------------|-7h8----7------7h8-|
|-7-7-7-7-7-7-7-7-0-7-8-11-|-----11---8-11-----|


        PM   PM     PM             PM------|
                         |-3--|
   E  E E  E E E E  E    E  E E  E E  E  E  E  E
|---------------------|---------------------------|
|---------------------|---------------------------|
|---------------------|---------------------------|
|---------------------|-------9-10-9----------10S=|
|-11S12--------8S7----|-11h12--------12-11-----8S=|
|-------0-12-0-----11-|--------------------11-----|


  Gtrs I, II
     PM--------------| ~~~~~    PM----------|
  E  E S S S S S S S S Q        E E  E E  E E E E
|-----------------------------|-------------------|
|-----------------------------|-------------------|
|-----------------------------|-------------------|
|-9---------------------------|-------------------|
|-7---------------------------|-8-7----7----------|
|---11-8-8-8-8-8-8-8-8-7b7.5--|-----11---11-8-7S6-|


  PM------------|     PM--------------|    PM----|
  S S S S S S S S E E S S S S   S S S S Q  S S S S Q
|-----------------------------|------------------------|
|-----------------------------|------------------------|
|-----------------------------|------------------------|
|-----------------------------|------------------------|
|-----------------------------|---------2----------3---|
|-6-6-6-6-6-6-6-6-6S2-2-2-2-2-|-2-2-2-2-4--0-0-0-0-3---|


 4/4
  Gtrs I, II
  PM------------|   PM--|         PM  PM|
  S S S S S S S S E E E  E   E E  E E E  E E E
|--------------------------|-------------------|
|--------------------------|-------------------|
|--------------------------|-------------------|
|--------------------------|-------------------|
|--------------------------|-7h8----7------7h8-|
|-7-7-7-7-7-7-7-7-0-7-8-11-|-----11---8-11-----|


        PM   PM     PM           PM--|
                         |-3--|  |-3--|  |-3--|
   E  E E  E E E E  E    E  E E  E E  E  E  E E   E   E
|---------------------|-----------------------------------|
|---------------------|-----------------------------------|
|---------------------|-----------------------------------|
|---------------------|-------9-10-9----------9-[10]S[9]--|
|-11S12--------8S7----|-11h12--------12-11h12-------------|
|-------0-12-0-----11-|-----------------------------------|


  Gtrs I, II
                  ~~            PM   PM|
                         |-3-|
  S S S S S S E E Q.     E E E  E E  E E E E
|----------------------|---------------------|
|----------------------|---------------------|
|----------------------|---------------------|
|----------------------|---------------------|
|----------------------|-7h8p7----7----------|
|-0-0-0-0-0-0-0h7-7----|-------11---11-8-7S6-|


  PM------------|     PM--------------|    PM----|
  S S S S S S S S E E S S S S   S S S S Q  S S S S Q
|-----------------------------|------------------------|
|-----------------------------|------------------------|
|-----------------------------|------------------------|
|-----------------------------|------------------------|
|-----------------------------|---------2----------3---|
|-6-6-6-6-6-6-6-6-6S2-2-2-2-2-|-2-2-2-2-4--0-0-0-0-3---|


 Riff 7 (2:21)
  Gtrs I, II
  PM----|     PM--|               PM|   PM
  E E E E  E  E E E    E   E  E E E E E E
|-------------------|---------------------|
|-------------------|---------------------|
|-------------------|---------------------|
|-------------------|---------------------|
|---------[4]-------|-[4]S[5]---------1---|
|-1-1-1-1-----1-1-1-|---------0h1-4-5---5-|


       PM|     PM|       PM|      PM|
   E E E E E E E E   E E E E E  E E E
|------------------|------------------|
|------------------|------------------|
|------------------|------------------|
|------------------|------------------|
|----7-----5S7-----|-7S8-----8S11-----|
|-/8---8-0-----0-0-|-----0-0------0-0-|


  Gtrs I, II
  PM----------| ~       PM|               PM|   PM
  S S S S S S E S S S S E E    E   E  E E E E E E
|---------------------------|---------------------|
|---------------------------|---------------------|
|---------------------------|---------------------|
|---------------------------|---------------------|
|---------------4-4-4-4-----|-[4]S[5]---------1---|
|-1-1-1-1-1-1-1---------0-1-|---------0h1-4-5---5-|


       PM|     PM|       PM|        ~~
   E E E E E E E E   E E E E  E  E  Q
|------------------|--------------------|
|------------------|--------------------|
|------------------|--------------------|
|------------------|--------------------|
|----7-----5S7-----|-7S8-----12S11-11---|
|-/8---8-0-----0-0-|-----0-0------------|


  Gtrs I, II
        ~  PM|               PM|   PM       PM|     PM|       PM|      PM|
  Q  Q  Q  E E    E   E  E E E E E E    E E E E E E E E   E E E E E  E E E
|--------------|---------------------|------------------|------------------|
|--------------|---------------------|------------------|------------------|
|--------------|---------------------|------------------|------------------|
|--------------|---------------------|------------------|------------------|
|-------4------|-[4]S[5]---------1---|----7-----5S7-----|-7S8-----8S11-----|
|-1--1-----0-1-|---------0h1-4-5---5-|-/8---8-0-----0-0-|-----0-0------0-0-|


  Gtrs I, II
  PM------------| ~  PM|         PM--|
                           |-3-| |-3-|
  S S S S S S S S Q  E E   E E E E E E E Q.
|------------------------|--------------------|
|------------------------|--------------------|
|------------------------|--------------------|
|------------------------|--------------------|
|-----------------4------|-4S5h7-8-7-5-4------|
|-1-1-1-1-1-1-1-1----4-5-|--------------------|


 Riff 6a (2:36)
 4/4
  Gtrs I, II
  PM------------|   PM--|         PM  PM|
  S S S S S S S S E E E  E   E E  E E E  E E E
|--------------------------|-------------------|
|--------------------------|-------------------|
|--------------------------|-------------------|
|--------------------------|-------------------|
|--------------------------|-7h8----7------7h8-|
|-7-7-7-7-7-7-7-7-0-7-8-11-|-----11---8-11-----|


        PM   PM     PM             PM------|
                         |-3--|
   E  E E  E E E E  E    E  E E  E E  E  E  E  E
|---------------------|--------------------------|
|---------------------|--------------------------|
|---------------------|--------------------------|
|---------------------|-------9-10-9----------10-|
|-11S12--------8S7----|-11h12--------12-11-----8-|
|-------0-12-0-----11-|--------------------11----|


  Gtrs I, II
     PM--------------| ~~~~~    PM----------|
  E  E S S S S S S S S Q        E E  E E  E E E E
|-----------------------------|-------------------|
|-----------------------------|-------------------|
|-----------------------------|-------------------|
|-9---------------------------|-------------------|
|-7---------------------------|-8-7----7----------|
|---11-8-8-8-8-8-8-8-8-7b7.5--|-----11---11-8-7S6-|


  PM------------|     PM--------------|    PM----|
  S S S S S S S S E E S S S S   S S S S Q  S S S S Q
|-----------------------------|------------------------|
|-----------------------------|------------------------|
|-----------------------------|------------------------|
|-----------------------------|------------------------|
|-----------------------------|---------2----------3---|
|-6-6-6-6-6-6-6-6-6S2-2-2-2-2-|-2-2-2-2-4--0-0-0-0-3---|


 4/4
  Gtrs I, II
  PM------------|   PM--|         PM  PM|
  S S S S S S S S E E E  E   E E  E E E  E E E
|--------------------------|-------------------|
|--------------------------|-------------------|
|--------------------------|-------------------|
|--------------------------|-------------------|
|--------------------------|-7h8----7------7h8-|
|-7-7-7-7-7-7-7-7-0-7-8-11-|-----11---8-11-----|


        PM   PM     PM           PM--|
                         |-3--|  |-3--|  |-3--|
   E  E E  E E E E  E    E  E E  E E  E  E  E E   E   E
|---------------------|-----------------------------------|
|---------------------|-----------------------------------|
|---------------------|-----------------------------------|
|---------------------|-------9-10-9----------9-[10]S[9]--|
|-11S12--------8S7----|-11h12--------12-11h12-------------|
|-------0-12-0-----11-|-----------------------------------|


  Gtrs I, II
                  ~~               PM------|
                         |-3--| |-3--| |-3--| |-3--|
  S S S S S S E E Q.     E E  E E  E E E E  E E E  E
|----------------------|-----------------------------|
|----------------------|-----------------------------|
|----------------------|-----------------------------|
|----------------------|----------------------7h8h11-|
|----------------------|--------7--------------------|
|-0-0-0-0-0-0-0h7-7----|-7h8h11---11-8-7h8h11--------|


  PM------------|     PM--------------|    PM----|
  S S S S S S S S E E S S S S   S S S S Q  S S S S Q
|-----------------------------|-------------------------|
|-----------------------------|-------------------------|
|-----------------------------|-------------------------|
|-----------------------------|-------------------------|
|-----------------------------|---------2----------3----|
|-6-6-6-6-6-6-6-6-6S2-2-2-2-2-|-2-2-2-2-4--0-0-0-0-3----|


 Riff 7a (2:52)
  Gtrs I, II
  PM----|     PM--|               PM|   PM
  E E E E  E  E E E    E   E  E E E E E E
|-------------------|---------------------|
|-------------------|---------------------|
|-------------------|---------------------|
|-------------------|---------------------|
|---------[4]-------|-[4]S[5]---------1---|
|-1-1-1-1-----1-1-1-|---------0h1-4-5---5-|


       PM|     PM|       PM|      PM|
   E E E E E E E E   E E E E E  E E E
|------------------|------------------|
|------------------|------------------|
|------------------|------------------|
|------------------|------------------|
|----7-----5S7-----|-7S8-----8S11-----|
|-/8---8-0-----0-0-|-----0-0------0-0-|


  Gtrs I, II
  PM----------| ~       PM|               PM|   PM
  S S S S S S E S S S S E E    E   E  E E E E E E
|---------------------------|---------------------|
|---------------------------|---------------------|
|---------------------------|---------------------|
|---------------------------|---------------------|
|---------------4-4-4-4-----|-[4]S[5]---------1---|
|-1-1-1-1-1-1-1---------0-1-|---------0h1-4-5---5-|


       PM|     PM|       PM|        ~~
   E E E E E E E E   E E E E  E  E  Q
|------------------|--------------------|
|------------------|--------------------|
|------------------|--------------------|
|------------------|--------------------|
|----7-----5S7-----|-7S8-----12S11-11---|
|-/8---8-0-----0-0-|-----0-0------------|


  Gtrs I, II
        ~  PM|               PM|   PM       PM|     PM|       PM|      PM|
  Q  Q  Q  E E    E   E  E E E E E E    E E E E E E E E   E E E E E  E E E
|--------------|---------------------|------------------|------------------|
|--------------|---------------------|------------------|------------------|
|--------------|---------------------|------------------|------------------|
|--------------|---------------------|------------------|------------------|
|-------4------|-[4]S[5]---------1---|----7-----5S7-----|-7S8-----8S11-----|
|-1--1-----0-1-|---------0h1-4-5---5-|-/8---8-0-----0-0-|-----0-0------0-0-|


  Gtrs I, II
  PM------------| ~                PM--|
                     |-3-|   |-3-| |-3-| |-3-| |-3-|
  S S S S S S S S Q  E E E   E E E E E E E E E E E E   W          +W
|--------------------------|-------------------------|----------|--------|
|--------------------------|-------------------------|----------|--------|
|--------------------------|-------------------------|----------|--------|
|--------------------------|---------------------5h7-|----------|--------|
|-----------------4--------|-4S5h7-8-7-5-4h5h7-8-----|-0--------|-(0)----|
|-1-1-1-1-1-1-1-1----5h7h8-|-------------------------|-0--------|-(0)----|


 Riff 8 (3:09)
 3/4
  Gtr I
    PM|   PM|       PM          PM  PM  PM|
  E E E E E E   E E E  E  E E   E E E E E E   E E E  E  E E
|-------------|---------------|-------------|---------------|
|-------------|---------------|-------------|---------------|
|-6-----6-7---|-6h7---[7]p0h3-|---6---6-7---|-6h7---[7]p0h3-|
|---0-0-----0-|-----0---------|-0---0-----0-|-----0---------|
|-------------|---------------|-------------|---------------|
|-------------|---------------|-------------|---------------|
|
| Gtr II
|   PM|   PM|       PM          PM  PM  PM|
| E E E E E E   E E E  E  E E   E E E E E E   E E E  E  E E
|-------------|---------------|-------------|---------------|
|-------------|---------------|-------------|---------------|
|-6-----6-----|-6h7---[7]p0-3-|---6---6-----|-6h7---[7]p0h3-|
|---0-0---0-0-|-----0---------|-0---0---0-0-|-----0---------|
|-------------|---------------|-------------|---------------|
|-------------|---------------|-------------|---------------|


 3/4
  Gtr I
    PM|   PM|       PM          PM  PM  PM|
  E E E E E E   E E E  E  E E   E E E E E E   E E E  E  E E   E E E E E E
|-------------|---------------|-------------|---------------|-------------|
|-------------|---------------|-------------|---------------|-------------|
|-6-----6-7---|-6h7---[7]p0h3-|---6---6-7---|-6h7---[7]p0h3-|-------------|
|---0-0-----0-|-----0---------|-0---0-----0-|-----0---------|-7p0h3-------|
|-------------|---------------|-------------|---------------|-------7p0h3-|
|-------------|---------------|-------------|---------------|-------------|
|
| Gtr II
|   PM|   PM|       PM          PM  PM  PM|
| E E E E E E   E E E  E  E E   E E E E E E   E E E  E  E E   E E E E E E
|-------------|---------------|-------------|---------------|-------------|
|-------------|---------------|-------------|---------------|-------------|
|-6-----6-----|-6h7---[7]p0h3-|---6---6-----|-6h7---[7]p0h3-|-------------|
|---0-0---0-0-|-----0---------|-0---0---0-0-|-----0---------|-7p0h3-------|
|-------------|---------------|-------------|---------------|-------7p0h3-|
|-------------|---------------|-------------|---------------|-------------|


 Riff 9 (3:16)
  Gtrs I, II
    PM--|   PM--|     PM|         PM--|   PM|
  E E S S E S S E   E E E E E E   E E E E E E   E E  E E  E E
|-----------------|-------------|-------------|---------------|
|-----------------|-------------|-------------|---------------|
|-----------------|-------------|-------------|---------------|
|-----------------|-------------|-------------|---------------|
|-4-------4-------|-4-----4h5-5-|---5---4-----|--------8------|
|---0-0-0---0-0-0-|---0-0-------|-0---0---0-0-|-0h8h11---11p8-|


  Gtrs I, II
    PM--|   PM--|     PM--|                   PM    PM--|
  E S S E E S S E   E S S E E E E   E E  E E  E E   E E E E E E
|-----------------|---------------|---------------|-------------|
|-----------------|---------------|---------------|-------------|
|-----------------|---------------|---------------|-------------|
|-----------------|---------------|---------------|-------------|
|-4-------4-------|-4-------4h5-5-|--------8----7-|-------5p4---|
|---0-0-0---0-0-0-|---0-0-0-------|-0h8h11---11---|-0-5-8-----8-|


  Gtrs I, II
    PM--|   PM--|     PM|         PM--|   PM|
  E E S S E S S E   E E E E E E   E E E E E E   E E  E E  E E
|-----------------|-------------|-------------|---------------|
|-----------------|-------------|-------------|---------------|
|-----------------|-------------|-------------|---------------|
|-----------------|-------------|-------------|---------------|
|-4-------4-------|-4-----4h5-5-|---5---4-----|--------8------|
|---0-0-0---0-0-0-|---0-0-------|-0---0---0-0-|-0h8h11---11p8-|


  Gtr I
    PM----|   PM----|     PM----|                           PM
  E S S S S E S S S S   E S S S S E E E   Q.   Q.     E E   E Q  E
|---------------------|-----------------|-----------|---------------|
|---------------------|-----------------|-----------|---------------|
|---------------------|-----------------|-----------|---------------|
|---------------------|-----------------|-----------|---------------|
|-4---------4---------|-4---------4h5-5-|-8----4----|-0-1---0-4-----|
|---0-0-0-0---0-0-0-0-|---0-0-0-0-------|-8----4----|-0-1---0-4-----|
|
| Gtr II
|   PM----|   PM----|     PM----|                       PM--|
| E S S S S E S S S S   E S S S S E E E   Q.   Q.     E S S E Q  E
|---------------------|-----------------|-----------|---------------|
|---------------------|-----------------|-----------|---------------|
|---------------------|-----------------|-----------|---------------|
|---------------------|-----------------|-8----4----|-0-1-1-0-4-----|
|-4---------4---------|-4---------4h5-5-|-8----4----|-0-1-1-0-4-----|
|---0-0-0-0---0-0-0-0-|---0-0-0-0-------|-----------|---------------|


  Gtrs I, II
    PM----|   PM----|     PM----|         PM--|   PM|
  E S S S S E S S S S   E S S S S E E E   E E E E E E   E E  E E  E E
|---------------------|-----------------|-------------|---------------|
|---------------------|-----------------|-------------|---------------|
|---------------------|-----------------|-------------|---------------|
|---------------------|-----------------|-------------|---------------|
|-4---------4---------|-4---------4h5-5-|---5---4-----|--------8------|
|---0-0-0-0---0-0-0-0-|---0-0-0-0-------|-0---0---0-0-|-0h8h11---11p8-|


  Gtrs I, II
    PM----|   PM----|     PM----|                   PM    PM--|     ~
  E S S S S E S S S S   E S S S S E E E   E E  E E  E E   E E E E E E
|---------------------|-----------------|---------------|-------------|
|---------------------|-----------------|---------------|-------------|
|---------------------|-----------------|---------------|-------------|
|---------------------|-----------------|---------------|-------------|
|-4---------4---------|-4---------4h5-5-|--------8----7-|-------5p4-4-|
|---0-0-0-0---0-0-0-0-|---0-0-0-0-------|-0h8h11---11---|-0-5-8-------|


  Gtrs I, II
    PM----|   PM----|     PM----|         PM--|   PM|
  E S S S S E S S S S   E S S S S E E E   E E E E E E   E E  E E  E E
|---------------------|-----------------|-------------|---------------|
|---------------------|-----------------|-------------|---------------|
|---------------------|-----------------|-------------|---------------|
|---------------------|-----------------|-------------|---------------|
|-4---------4---------|-4---------4h5-5-|---5---4-----|--------8------|
|---0-0-0-0---0-0-0-0-|---0-0-0-0-------|-0---0---0-0-|-0h8h11---11p8-|


  Gtrs I, II
    PM----|   PM----|     PM----|                     PM--------|
  E S S S S E S S S S   E S S S S E E E   Q.   Q.     E E E E E E
|---------------------|-----------------|-----------|-------------|
|---------------------|-----------------|-----------|-------------|
|---------------------|-----------------|-----------|-------------|
|---------------------|-----------------|-----------|-------------|
|-4---------4---------|-4---------4h5-5-|-8----4----|-0-1-0-4-0-1-|
|---0-0-0-0---0-0-0-0-|---0-0-0-0-------|-8----4----|-0-1-0-4-0-1-|


 Riff 10 (3:41)
  Gtrs I, II
                                       PM--------|
  H.        +H.        +H       Q      E E E E E E
|---------|----------|---------------|--------------|
|---------|----------|---------------|--------------|
|---------|----------|---------------|--------------|
|---------|----------|---------------|--------------|
|-0-------|-(0)------|-(0)----(11)\--|-0-1-0-4-0-1--|
|-0-------|-(0)------|-(0)----(11)\--|-0-1-0-4-0-1--|


                                   PM--|
  H.        +H.        Q.   Q.     E E E E  Q
|---------|----------|-----------|-------------|
|---------|----------|-----------|-------------|
|---------|----------|-----------|-------------|
|---------|----------|-----------|-------------|
|-0-------|-(0)------|-8----4----|-0-1-4-5-----|
|-0-------|-(0)------|-8----4----|-0-1-4-5-----|


    Gtrs I, II
    PM--|   PM    PM--|   PM    PM--|   PM
                                                    |-3-|
    E E E E E E   E E E E E E   E E E E E E   E E E E E E E  4x
||--------------|-------------|-------------|----------------||
||o-------------|-------------|-------------|---------------o||
||--------------|-------------|-------------|----------------||
||--------------|-------------|-------------|----------------||
||o-------------|-------------|-------------|---------------o||
||--0-1-0-4-0-1-|-0-1-0-4-0-1-|-0-1-0-4-0-1-|-0-1-4-4h5p4-1--||


   Riff 11 (3:59)
    Gtrs I, II
      PM|   PM--------|   PM--------|   PM--------|   PM|
    E E E E E E   E E E E E E   E E E E E E   E E E E E E
||--------------|-------------|-------------|-------------|
||o-------------|-------------|-------------|-------------|
||--------------|-------------|-------------|-------------|
||--------------|-------------|-------------|-------------|
||o-------5-----|-------5-----|-------4-----|-------4-----|
||--0-1-0---0-1-|-0-1-0---0-1-|-0-1-0---0-1-|-0-1-0---0-1-|


  Gtrs I, II
  PM--|     PM------|     PM             PM
  E E E E E E   E E E E E E   E E E  E E E    a E E E E E E  4x
|-------------|-------------|--------------|-----------------||
|-------------|-------------|--------------|----------------o||
|-------------|-------------|--------------|-----------------||
|-------------|-------------|--------------|-----------------||
|-------1p0---|-------1p0---|--------------|--------------5-o||
|-0-4-5-----4-|-0-4-5-----4-|-0-4s7-11p7-7-|-11s7-7-4-0h1----||


  Gtrs I, II
                                    PM--------|
  H.        Q.   Q.     Q.   Q.     E E E E E E
|---------|-----------|-----------|--------------|
|---------|-----------|-----------|--------------|
|---------|-----------|-----------|--------------|
|---------|-8----7----|-3---------|--------------|
|-0-------|-6----5----|-1----4----|--------------|
|-0-------|-----------|------4----|-0-1-0-4-0-1--|


  Gtrs I, II
                               PM|
                                     |---3---|
  H.        Q.   Q.     Q.   E E E   Q.  Q.  Q.
|---------|-----------|------------|--------------|
|---------|-----------|------------|--------------|
|---------|-----------|------------|--------------|
|---------|-5----8----|-7----3-----|-6------------|
|-0-------|-3----6----|-5----1-----|-4---5---1----|
|-0-------|-5----8----|--------4-1-|-----5---1----|


  Gtrs I, II
                                    PM--------|
  H.        Q.   Q.     Q.   Q.     E E E E E E
|---------|-----------|-----------|--------------|
|---------|-----------|-----------|--------------|
|---------|-----------|-----------|--------------|
|---------|-8----7----|-3---------|--------------|
|-0-------|-6----5----|-1----4----|--------------|
|-0-------|-----------|------4----|-0-1-0-4-0-1--|


  Gtrs I, II
                                        PM  PM
                        |-3-|
  H.        Q.   Q.     E E E E E E E   E E E E Q
|---------|-----------|---------------|------------*|
|---------|-----------|---------------|------------*|
|---------|-----------|---------------|------------*|
|---------|-5----8----|-------5-------|---6---3----*|
|-0-------|-3----6----|-5h6h9---9-6-5-|-0-4-0-1----*|
|-0-------|-5----8----|---------------|------------*|

End.
comments
We did not receive enough feedback on this tab! Please rate:
1 2 3 4 5
I want to post or [tab]
guest
You may want to rate the tab now too:
select rating
Please do not post tabs as comments. Select "correction" instead!