Oops, an error
Loading. Please wait.

The Valley Of Winds Breath And Dragons Fire Tab

ver1
ver1

Whole song

Interactive

More versions @911Tabs.com
700 views 1 this week
no commentswrite comment
1 2 3 4 5
excellent!
x 3
Autoscroll
+/-
esc
set tempo
stop
Contributor
Difficulty
Tuning
intermediate
D A D G B E
WARNING: You are trying to view
                                    content from Ultimate-Guitar.com
                                    in an unauthorized application,
                                    which is prohibited.

                                    Please use an official Ultimate
                                    Guitar Tabs application for iPhone,
                                    iPad or Android to access legitimate
                                    chords, guitar, bass, and drum tabs
                                    from Ultimate-Guitar.com database.

                                    Type "ultimate guitar tabs" in Apple
                                    App Store's or Android Market's
                                    search to find the application.
Psycroptic - 'The Valley Of Winds Breath And Dragons Fire'
The Scepter Of The Ancients (2003)
Unique Leader Records

tabbed by general maxx
________________________________________________________________________________
Dropped D Tuning


 Riff A
   Gtr. 1
E----------------------------------------------------------------------------|
B----------------------------------------------------------------------------|
G----------------------------------------------------------------------------|
D--------------------------------------5-------------------------------------|
A-1---------1---------0---3-5-653--3---5-----------3-5-653--3---1-1----------|
D-1-000000001-000000000356-6-6----6-65~--0-000-0356-6-6----6-65~1-1-00000000-|

 Riff A (Cont.)
   Gtr. 1
E||--------------------------------------------------------------------------|
B||--------------------------------------------------------------------------|
G||--------------------------------------------------------------------------|
D||----------------------------5-------5-------------------------------------|
A||-1---------0---3-5-653--3---5-------5-----------3-5-653--3----1---------1-|
D||-1-000000000356-6-6----6-65~--0-000---0-000-0356-6-6----6-65~-1-000000001-|

 Riff A (Cont.)
   Gtr. 1            (1x)
E||----------------------||
B||----------------------||
G||----------------------||
D||----------------------||
A||---------1----------1-||
D||-000000001-00000000-1-||

 Riff B
   Gtr. 1                          (4x)
E||------------------------------------||
B||-----------------------------------.||
G||------^-^-------------^-^-----------||
D||-^-^--3-2--------^-^--3-2-^-^------.||
A||-5-401-1-0123210-5-401-1--4-5-7h8p7-||
D||--0------0123210--0------0-0-0------||

 Riff C                                             ________________
   Gtr. 1                                          |              1.
E||-----------------------------------------------|-----------------||
B||-----------------------------------------------|----------------.||
G||-----------------------------------------------|-----------------||
D||--88-777777777~-88-7744-----------88-777777777~|-7/8\7----------.||
A||-----------------------5555663366--------------|-5/6\5-1-4--1-1--||
D||-0--0----------0--0--------------0--0----------|-------1-4--1-1--||

 Riff C (Cont.)
   Gtr. 1       2.  (1x)
E||--------------------||
B||--------------------||
G||--------------------||
D||-----058754-4-------||
A||-0365------6-43310--||
D||-------------43310--||

 Riff D
   Gtr. 1
E||---------------------------------------------------------------------||
B||---------------------------------------------------------------------||
G||---------------------------------------------------------------------||
D||---------------------------------------------------------------------||
A||------------------------------------------------------3h6p3-1-4--1~1-||
D||-008800777777777700887744001111111111~-008807777777777------1-4--1~1-||

 Riff D (Cont.)
   Gtr. 1                                                         (1x)
E||-------------------------------------------------------------------||
B||-------------------------------------------------------------------||
G||-------------------------------------------------------------------||
D||----------------------------------------------------058754-4-------||
A||---------------------------------0-0------------0365------6-43310--||
D||-0-880-7777777777008877440011111~0-0--777777777~------------43310--||


 Riff A1
   Gtr. 1                                              (1x)
E||--------------------------------------------------------||
B||--------------------------------------------------------||
G||--------------------------------------------------------||
D||--------------------------------------------------------||
A||-5-----------3-5-653--3-1---------1-000000001-000000001-||
D||-5-0-000-0356-6-6----6-61-000000001-000000001-000000001-||

 Riff E
   Gtr. 1                                   (4x)
E||--------------------------------------------|----------||
B||-------------------------------------------.|----------||
G||--------------------------------------------|----------||
D||-4------4h5p4-----4h5----------------------.|----------||
A||----6-5--------555-------6-5-3h6p5-5555-----|----------||
D||--00-0-0-----00--------00-0-0-----0----7777-|-44441111-||

 Riff F
   Gtr. 1                                                     (1x)
E||--------------------------------------------------------------||
B||--------------------------------------------------------------||
G||--------------------------------------------------------------||
D||-----------------------------------------------------------66-||
A||-4~-1p0-----1p0--4~1p0-0h3h6p5--4~-1p0-----1p0-4~1p0-336655---||
D||-4~-1p0-00001p0--4~1p0----------4~-1p0-00001p0-4~1p0----------||

 Riff G
   Gtr. 1                                                        (1x)
E||------------------------------------------------------------------||
B||------------------------------------------------------------------||
G||------------------------------------------------------------------||
D||---------------66-----------------------66--------------66--------||
A||-33665522336655--33665522-4~-1p0--336655--33665522336655---4~-1p0-||
D||--------------------------4~-1p0---------------------------4~-1p0-||

 Riff F1
   Gtr. 1                                                                (1x)
E||--------------------------------------------------------------------------|
B||--------------------------------------------------------------------------|
G||--------------------------------------------------------------------------|
D||--------------------------------------------------------------------------|
A||-4~-1p0-----1p0--4~1p0-0h3h6p5--4~-1p0-----1p0--4~1p0-0h3h6p5--4------0-1-|
D||-4~-1p0-00001p0--4~1p0----------4~-1p0-00001p0--4~1p0----------4------0-1-|

 Riff H
   Gtr. 1                                                       (2x)
E||-----10--12--13p10-------------|-----10--12--13p10---------------||
B||-------10--10-----10--13p1011--|-------10--10-----10--13p10-----.||
G||-7-9----------------10-------12|-7-9----------------10-----9h12--||
D||--7-7--------------------------|--7-7---------------------------.||
A||-------------------------------|---------------------------------||
D||-------------------------------|---------------------------------||
 ||                               |                                 ||
 ||Gtr. 2                         |                                 ||
E||-------------------------------|---------------------------------||
B||-------------------------------|--------------------------------.||
G||---------2~-----2~-------------|---------2~----------------------||
D||-3~-3~---3~-----3~----7\5-5\3--|-3~-3~---3~-----3~----7/5-5/8---.||
A||-5~-5~----------5~----8\7-7\5--|-5~-5~----------5~----8/7-7/10---||
D||-------------------------------|---------------------------------||

 Riff I
   Gtr. 1&2                                                       (2x)
E||-10*--(*Gtr. 1 from last riff)-------------------------------------||
B||-------------------------------------------------------------------||
G||-------------------------------------------------------------------||
D||-------------77777-77777----------------------77777-77777----------||
A||-55555-88888--------------7-3-5-2-55555-88888----------------3-----||
D||------0-----0-----0-----0-7-3-5-2------0-----0-----0-----0-3---5-2-||

 Riff J
   Gtr. 1                                            (1x)
E||--------------------------------------|--------------||
B||--------------------------------------|--------------||
G||-------------------------5------------|--------5-----||
D||-------------------5----5-------------|-----87--7----||
A||----5--8--035---8----0h5-----5--875035|--357--8--5~--||
D||-000-00-00---000-00-0-----000-00------|78------------||

 Riff K                       __________________  ______________________
   Gtr. 1                   |                1. |                   2.
E||------------------------|-------------------|----------------------||
B||------------------------|------------------.|----------------------||
G||------------------------|-------------------|----------------------||
D||------------------------|------------42020-.|-5----4-----2/4\2-2~--||
A||-22222242222522220h22222|222222242222-----0-|-7777755555-4/5\4-0~--||
D||------------------------|-------------------|----------------------||

 Riff H1
   Gtr. 1
E||----------------------------------------------------------|
B||-----------1110------------111013----------1110--10\8-8---|
G||-10--10--10----1010--10--10------10--10--10----10---------|
D||---12--12----------12--12----------12--12-----------------|
A||----------------------------------------------------------|
D||----------------------------------------------------------|
 ||                                                          |
 ||Gtr. 2                                                    |
E||----------------------------------------------------------|
B||----------------------------------------------------------|
G||-------------------------2~----------2~-------------------|
D||-3~----------3~----------3~----------3~----------7\5-5/3--|
A||-5~----------5~----------5~----------5~----------8\7-7/5--|
D||----------------------------------------------------------|


Riff H1 (Cont.)
   Gtr. 1                                                 2x)
E||----------------------------------------------------------||
B||-----------1110------------111013----------1110--10\8-8--.||
G||-10--10--10----1010--10--10------10--10--10----10---------||
D||---12--12----------12--12----------12--12----------------.||
A||----------------------------------------------------------||
D||----------------------------------------------------------||
 ||                                                          ||
 ||Gtr. 2                                                    ||
E||----------------------------------------------------------||
B||---------------------------------------------------------.||
G||-------------------------2~----------2~-------------------||
D||-3~----------3~----------3~----------3~----------7\5-5/8-.||
A||-5~----------5~----------5~----------5~----------8\7-7/10-||
D||----------------------------------------------------------||

 Riff J 1x


 Riff K 1x


 Riff D 1x

 Riff L                       ___________  _________
   Gtr. 1                   |         1. |       2.
E||------------------------|------------|----------||
B||------------------------|-----------.|----------||
G||------------------------|------------|-----5----||
D||------------------------|-887733--33.|-8-7--57--||
A||-5------8-7-3-0-3-5-----|-------55---|--5-8-----||
D||-5-0-0--8-7-3-0-3-5-0-0-|------------|--------0-||

 Riff M
   Gtr. 1                                                           (1x)
E||---------------------------------------------------------------------||
B||---------------------------------------------------------------------||
G||---------------------------------------------------------------------||
D||---8877------8877--8877------------8877------8877--------------------||
A||---------5588------------33336350--------5588----3333110011115p0h3h7-||
D||-55----55--------55----55--------55----55----------------------------||

 Riff N
   Gtr. 1
E||------------------------------------------------------------------------|
B||------------------------------------------------------------------------|
G||------------------------------------------------------------------------|
D||------------------------------------------------------------------------|
A||-55000011--110000--------^-^-^-^----55000011--110000--------^-^-5p0h3h7-|
D||---------55------333373332222525~-----------55------333373332222--------|

 Riff N
   Gtr. 1                                                        (1x)
E||------------------------------------------------------------------||
B||------------------------------------------------------------------||
G||------------------------------------------------------------------||
D||------------------------------------------------------------------||
A||-55000011--110000--------^-^-^-^-55000011--110000--------^-^------||
D||---------55------333373332222525~--------55------333373332222-----||


 Riff M 1x


 Riff N 1x


 Riff D1
   Gtr. 1
E||------------------------------------------------------|
B||------------------------------------------------------|
G||------------------------------------------------------|
D||------------------------------------------------------|
A||-------7---8-7-4-0-1~------------------3h6p3-1-4--1~1-|
D||-0088007---8-7-4-0-1~---008807777777777------1-4--1~1-|

Riff D1 (Cont.)
   Gtr. 1                                                         (1x)
E||-------------------------------------------------------------------||
B||-------------------------------------------------------------------||
G||-------------------------------------------------------------------||
D||----------------------------------------------------058754-4-------||
A||---------------------------------0-0------------0365------6-43310--||
D||-0-880-7777777777008877440011111~0-0--777777777~------------43310--||
comments
We did not receive enough feedback on this tab! Please rate:
print report bad tab
1 2 3 4 5
I want to post or [tab]
guest
You may want to rate the tab now too:
select rating
Please do not post tabs as comments. Select "correction" instead!