Oops, an error
Loading. Please wait.

Better Place Tab

1,049 views 3 this week
no commentswrite comment
1 2 3 4 5
please rate
add to favorites launch autoscroll
font size
0
reset
Autoscroll
+/-
esc
set tempo
stop
Contributor
Difficulty
Tuning
novice
C G C F A D
WARNING: You are trying to view
                                    content from Ultimate-Guitar.com
                                    in an unauthorized application,
                                    which is prohibited.

                                    Please use an official Ultimate
                                    Guitar Tabs application for iPhone,
                                    iPad or Android to access legitimate
                                    chords, guitar, bass, and drum tabs
                                    from Ultimate-Guitar.com database.

                                    Type "ultimate guitar tabs" in Apple
                                    App Store's or Android Market's
                                    search to find the application.
----------------------------------------------------------------------------
                               Better Place
                              Puddle of Mudd
----------------------------------------------------------------------------

Hey, I just want to start off by saying that I’m not good with chords so some of the 
might be off. From there on, I believe this was a solid tab compared to the rest of my 
tabs. Enjoy!

Username: dkm817 (same on X box live)
Email: guitardrums@rockfan.com

Guitar 1 Rhythmic (C G C F A D)
Guitar 2 Lead     (C G C F A D)
Guitar 3 Rhythmic (C G C F A D)
Guitar 4 Backup   (C G C F A D)

Intro

Guitar 1
D-------------------------------------------------|
A-8~~~~-8--8--8~~~~-8--8~~~~-8--8~~~~-8--8~~~~~~~-|
F-x-----x--x--x-----x--x-----x--x-----x--x--------|
C-8~~~~-8--8--8~~~~-8--8~~~~-8--8~~~~-8--8--8--8--|
G-6~~~~-6--6--6~~~~-6--6~~~~-6--6~~~~-6--6--6--6--|
C-------------------------------------------------|

Guitar 1
D-------------------------------------------------|
A-8~~~~-8--8--8~~~~-8--8~~~~-11-11~~~-11-11~\~~~~-|
F-x-----x--x--x-----x--x-----x--x-----x--x--------|
C-8~~~~-8--8--8~~~~-8--8~~~~-11-11~~~-11-11~\~~~~-|
G-6~~~~-6--6--6~~~~-6--6~~~~-9--9~~~~-9--9~~\~~~~-|
C-------------------------------------------------|

Guitar 1
D-------------------------------------------------|
A-4~~~~-4--4--4~~~~-4--4~~~~-4--4~~~~-4--4~~~~~~~-|
F-x-----x--x--x-----x--x-----x--x-----x--x--------|
C-4~~~~-4--4--4~~~~-4--4~~~~-4--4~~~~-4--4--4--4--|
G-2~~~~-2--2--2~~~~-2--2~~~~-2--2~~~~-2--2--2--2--|
C-------------------------------------------------|

Guitar 2
D-11~~^\~~~~~~~~~~~~~~~~~~~~~~~~~~~~~~~~~~~~~~~~~-|
A-------------------------------------------------|
F-------------------------------------------------|
C-------------------------------------------------|
G-------------------------------------------------|
C-------------------------------------------------|

Guitar 1
D-------------------------------------------------|
A-4/-6--6--6--6~~~~-6--6~~~~-6--6~~~~-6--6~~~~~~~-|
F-x-----x--x--x-----x--x-----x--x-----x--x--------|
C-4/-6--6--6--6~~~~-6--6~~~~-6--6~~~~-6--6--6--6--|
G-2/-4--4--4--4~~~~-4--4~~~~-4--4~~~~-4--4--4--4--|
C-------------------------------------------------|

Guitar 2
D-6~~~^\~~~~~~~~~~~~~~~~~~~~~~~~~~~~~~~~~~~~~~~~~-|
A-------------------------------------------------|
F-------------------------------------------------|
C-------------------------------------------------|
G-------------------------------------------------|
C-------------------------------------------------|

Verse 1

Guitar 1
D-------------------------------------------------|
A-8~~~~-8--8--8~~~~-8--8~~~~-8--8~~~~-8--8~~~~~~~-|
F-x-----x--x--x-----x--x-----x--x-----x--x--------|
C-8~~~~-8--8--8~~~~-8--8~~~~-8--8~~~~-8--8--8--8--|
G-6~~~~-6--6--6~~~~-6--6~~~~-6--6~~~~-6--6--6--6--|
C-------------------------------------------------|

Guitar 1
D-------------------------------------------------|
A-8~~~~-8--8--8~~~~-8--8~~~~-11-11~~~-11-11~\~~~~-|
F-x-----x--x--x-----x--x-----x--x-----x--x--------|
C-8~~~~-8--8--8~~~~-8--8~~~~-11-11~~~-11-11~\~~~~-|
G-6~~~~-6--6--6~~~~-6--6~~~~-9--9~~~~-9--9~~\~~~~-|
C-------------------------------------------------|

Guitar 1
D-------------------------------------------------|
A-4~~~~-4--4--4~~~~-4--4~~~~-4--4~~~~-4--4~~~~~~~-|
F-x-----x--x--x-----x--x-----x--x-----x--x--------|
C-4~~~~-4--4--4~~~~-4--4~~~~-4--4~~~~-4--4--4--4--|
G-2~~~~-2--2--2~~~~-2--2~~~~-2--2~~~~-2--2--2--2--|
C-------------------------------------------------|

Guitar 1
D-------------------------------------------------|
A-4/-6--6--6--6~~~~-6--6~~~~-6--6~~~~-6--6~~~~~~~-|
F-x-----x--x--x-----x--x-----x--x-----x--x--------|
C-4/-6--6--6--6~~~~-6--6~~~~-6--6~~~~-6--6--6--6--|
G-2/-4--4--4--4~~~~-4--4~~~~-4--4~~~~-4--4--4--4--|
C-------------------------------------------------|

Guitar 1
D-------------------------------------------------|
A-8~~~~-8--8--8~~~~-8--8~~~~-8--8~~~~-8--8~~~~~~~-|
F-x-----x--x--x-----x--x-----x--x-----x--x--------|
C-8~~~~-8--8--8~~~~-8--8~~~~-8--8~~~~-8--8--8--8--|
G-6~~~~-6--6--6~~~~-6--6~~~~-6--6~~~~-6--6--6--6--|
C-------------------------------------------------|

Guitar 2
D-------------------------------------------------|
A-------8~~~~-9~~~~~~~~~~~~~~~~~~~~~~~~~~~~~~~~~~-|
F-8~~~~-------------------------------------------|
C-------------------------------------------------|
G-------------------------------------------------|
C-------------------------------------------------|

Guitar 1
D-------------------------------------------------|
A-8~~~~-8--8--8~~~~-8--8~~~~-11-11~~~-11-11~\~~~~-|
F-x-----x--x--x-----x--x-----x--x-----x--x--------|
C-8~~~~-8--8--8~~~~-8--8~~~~-11-11~~~-11-11~\~~~~-|
G-6~~~~-6--6--6~~~~-6--6~~~~-9--9~~~~-9--9~~\~~~~-|
C-------------------------------------------------|

Guitar 2
D-------------------------------------------------|
A-------------------------------------------------|
F-------------------------------------------------|
C-------------------------------------------------|
G-------------------------------------------------|
C-------------------------------------------------|

Guitar 1
D-------------------------------------------------|
A-4~~~~-4--4--4~~~~-4--4~~~~-4--4~~~~-4--4~~~~~~~-|
F-x-----x--x--x-----x--x-----x--x-----x--x--------|
C-4~~~~-4--4--4~~~~-4--4~~~~-4--4~~~~-4--4--4--4--|
G-2~~~~-2--2--2~~~~-2--2~~~~-2--2~~~~-2--2--2--2--|
C-------------------------------------------------|

Guitar 2
D-------------------------------------------------|
A-------9~~~~~~~~~~~~~~~~~~~~~~~~~~~~~~~~~~~~~~~~-|
F-8~~~~-------------------------------------------|
C-------------------------------------------------|
G-------------------------------------------------|
C-------------------------------------------------|

Guitar 1
D-------------------------------------------------|
A-4/-6--6--6--6~~~~-6--6~~~~-6--6~~~~-6--6~~~~~~~-|
F-x-----x--x--x-----x--x-----x--x-----x--x--------|
C-4/-6--6--6--6~~~~-6--6~~~~-6--6~~~~-6--6--6--6--|
G-2/-4--4--4--4~~~~-4--4~~~~-4--4~~~~-4--4--4--4--|
C-------------------------------------------------|

Guitar 2
D-------------------------------------------------|
A-------------------------------------------------|
F-10~^~~^~~^~~^~~^~~^~~^~~^~~^~~^~~^~~^~~^~~^~~~~-|
C-------------------------------------------------|
G-------------------------------------------------|
C-------------------------------------------------|

Guitar 3
D-------------------------------------------------|
A-------------------------------------------------|
F-------------------------------------------------|
C-------------------------------------------5~~~~-|
G-------------------------------------------5~~~~-|
C-------------------------------------------5~~~~-|

Pre Chorus 1

Guitar 1 & 3
D-------------------------------------------------|
A-------------------------------------------------|
F-------------------------------------------------|
C-6-----6-----6-----6-----6-----6-----6-----6--6--|
G-6-----6-----6-----6-----6-----6-----6-----6--6--|
C-6-----6-----6-----6-----6-----6-----6-----6--6--|
Pm.     .     .     .     .     .     .     .  .

Guitar 2
D-------------------------------------------------|
A-9~~~~~^~~^~~^~~^~~^~~^~~^~~^~~^~~^~~^~~^~~^~~^~-|
F-8~~~~~^~~^~~^~~^~~^~~^~~^~~^~~^~~^~~^~~^~~^~~^~-|
C-6~~~~~^~~^~~^~~^~~^~~^~~^~~^~~^~~^~~^~~^~~^~~^~-|
G-6~~~~~^~~^~~^~~^~~^~~^~~^~~^~~^~~^~~^~~^~~^~~^~-|
C-6~~~~~^~~^~~^~~^~~^~~^~~^~~^~~^~~^~~^~~^~~^~~^~-|

Guitar 1 & 3
D-------------------------------------------------|
A-------------------------------------------------|
F-------------------------------------------------|
C-6-----6-----6-----6-----6/-9--9-----9-----9\-4--|
G-6-----6-----6-----6-----6/-9--9-----9-----9\-4--|
C-6-----6-----6-----6-----6/-9--9-----9-----9\-4--|
Pm.     .     .     .           .     .

Guitar 2
D-------------------------------------------------|
A-~~^~~^~~^~~^~~^~~^~~~~~-------8~~~~-11~~~-8~~~~-|
F-~~^~~^~~^~~^~~^~~^~~~~~-9~~~~-------------------|
C-~~^~~^~~^~~^~~^~~^~~~~~-------------------------|
G-~~^~~^~~^~~^~~^~~^~~~~~-------------------------|
C-~~^~~^~~^~~^~~^~~^~~~~~-------------------------|

Guitar 1 & 3
D-------------------------------------------------|
A-------------------------------------------------|
F-------------------------------------------------|
C-4-----4-----4-----4-----4-----4-----4-----4-----|
G-4-----4-----4-----4-----4-----4-----4-----4-----|
C-4-----4-----4-----4-----4-----4-----4-----4-----|
Pm.     .     .     .     .     .     .     .

Guitar 2
D-------------------------------------------------|
A-7~~~~~^~~^~~^~~^~~^~~^~~^~~^~~^~~^~~^~~^~~^~~^~-|
F-6~~~~~^~~^~~^~~^~~^~~^~~^~~^~~^~~^~~^~~^~~^~~^~-|
C-4~~~~~^~~^~~^~~^~~^~~^~~^~~^~~^~~^~~^~~^~~^~~^~-|
G-4~~~~~^~~^~~^~~^~~^~~^~~^~~^~~^~~^~~^~~^~~^~~^~-|
C-4~~~~~^~~^~~^~~^~~^~~^~~^~~^~~^~~^~~^~~^~~^~~^~-|

Guitar 1
D-------------------------------------------------|
A-------------------------------------------------|
F-------------------------------------------------|
C-4/-11-11----11----11----11~~~-11~~~-11~~~-11~~~-|
G-4/-11-11----11----11----11~~~-11~~~-11~~~-11~~~-|
C-4/-11-11----11----11----11~~~-11~~~-11~~~-11~~~-|
Pm      .     .     .

Guitar 2
D-------------------------------------4~~~~~~~~~~-|
A-~~^~~^~~^~~^~~^~~^~~~~~-------7~~~~-------------|
F-~~^~~^~~^~~^~~^~~^~~~~~-6~~~~-------------------|
C-~~^~~^~~^~~^~~^~~^~~~~~-------------------------|
G-~~^~~^~~^~~^~~^~~^~~~~~-------------------------|
C-~~^~~^~~^~~^~~^~~^~~~~~-------------------------|

Guitar 3
D-------------------------------------------------|
A-------------------------------------------------|
F-------------------------6*----6*----6*----6*----|
C-4/-11-11----11----11----------------------------|
G-4/-11-11----11----11----------------------------|
C-4/-11-11----11----11----------------------------|
Pm      .     .     .

Guitar 1
D-------------------------------------------------|
A-------------------------------------------------|
F-------------------------------------------------|
C-6-----6-----6-----6-----6-----6-----6-----6--6--|
G-6-----6-----6-----6-----6-----6-----6-----6--6--|
C-6-----6-----6-----6-----6-----6-----6-----6--6--|
Pm.     .     .     .     .     .     .     .  .

Guitar 2
D-------------------------------------------------|
A-9~~~~~^~~^~~^~~^~~^~~^~~^~~^~~^~~^~~^~~^~~^~~^~-|
F-8~~~~~^~~^~~^~~^~~^~~^~~^~~^~~^~~^~~^~~^~~^~~^~-|
C-6~~~~~^~~^~~^~~^~~^~~^~~^~~^~~^~~^~~^~~^~~^~~^~-|
G-6~~~~~^~~^~~^~~^~~^~~^~~^~~^~~^~~^~~^~~^~~^~~^~-|
C-6~~~~~^~~^~~^~~^~~^~~^~~^~~^~~^~~^~~^~~^~~^~~^~-|

Guitar 3
D-------------------------------------------------|
A-------------------------------------------------|
F-8*----8*----8*----8*----8*----8*----8*----8*----|
C-------------------------------------------------|
G-------------------------------------------------|
C-------------------------------------------------|

Guitar 1
D-------------------------------------------------|
A-------------------------------------------------|
F-------------------------------------------------|
C-6-----6-----6-----6-----6/-9--9-----9-----9\-4--|
G-6-----6-----6-----6-----6/-9--9-----9-----9\-4--|
C-6-----6-----6-----6-----6/-9--9-----9-----9\-4--|
Pm.     .     .     .           .     .

Guitar 2
D-------------------7~~~~-------------------------|
A-~~^~~^~~^~~^~~^~~-------7~~~~-------------7~~~~-|
F-~~^~~^~~^~~^~~^~~-------------6~~~~-4~~~~-------|
C-~~^~~^~~^~~^~~^~~-------------------------------|
G-~~^~~^~~^~~^~~^~~-------------------------------|
C-~~^~~^~~^~~^~~^~~-------------------------------|

Guitar 3
D-------------------------------------------------|
A-------------------------------------------------|
F-8*----8*----8*----8*----11*---11*---11*---11*---|
C-------------------------------------------------|
G-------------------------------------------------|
C-------------------------------------------------|

Guitar 1
D-------------------------------------------------|
A-------------------------------------------------|
F-------------------------------------------------|
C-4-----4-----4-----4-----4-----4-----4-----4-----|
G-4-----4-----4-----4-----4-----4-----4-----4-----|
C-4-----4-----4-----4-----4-----4-----4-----4-----|
Pm.     .     .     .     .     .     .     .

Guitar 2
D-------------------------------------------------|
A-7~~~~~^~~^~~^~~^~~^~~^~~^~~^~~^~~^~~^~~^~~^~~^~-|
F-6~~~~~^~~^~~^~~^~~^~~^~~^~~^~~^~~^~~^~~^~~^~~^~-|
C-4~~~~~^~~^~~^~~^~~^~~^~~^~~^~~^~~^~~^~~^~~^~~^~-|
G-4~~~~~^~~^~~^~~^~~^~~^~~^~~^~~^~~^~~^~~^~~^~~^~-|
C-4~~~~~^~~^~~^~~^~~^~~^~~^~~^~~^~~^~~^~~^~~^~~^~-|

Guitar 3
D-------------------------------------------------|
A-------------------------------------------------|
F-6*----6*----6*----6*----6*----6*----6*----6*----|
C-------------------------------------------------|
G-------------------------------------------------|
C-------------------------------------------------|

Guitar 1
D-------------------------------------------------|
A-------------------------------------------------|
F-------------------------------------------------|
C-11~~~~~~~~~~~~~~~~~~~~~~~~~~~~~~~~~-x--x----x---|
G-11~~~~~~~~~~~~~~~~~~~~~~~~~~~~~~~~~-x--x----x---|
C-11~~~~~~~~~~~~~~~~~~~~~~~~~~~~~~~~~-x--x----x---|

Guitar 2
D-------------------------------------------------|
A-9~~~~~~~~~~~~~~~~~~~~~~~~~~~~~~~~~~-------------|
F-8~~~~~~~~~~~~~~~~~~~~~~~~~~~~~~~~~~-------------|
C-6~~~~~~~~~~~~~~~~~~~~~~~~~~~~~~~~~~-x--x----x---|
G-6~~~~~~~~~~~~~~~~~~~~~~~~~~~~~~~~~~-x--x----x---|
C-6~~~~~~~~~~~~~~~~~~~~~~~~~~~~~~~~~~-x--x----x---|

Guitar 3
D-------------------------------------------------|
A-------------------------------------------------|
F-6*~~~~~~~~~~~~~~~~~~~~~~~~~~~~~~~~~-------------|
C-------------------------------------x--x----x---|
G-------------------------------------x--x----x---|
C-------------------------------------x--x----x---|

Chorus 1

Guitar 1 & 2 & 3
D-------------------------------------------------|
A-------------------------------------------------|
F-------------------------------------------------|
C-1~~~~~~~-1--1~~~~~~~-1~~~~-1--1~~~~-1--1~~~~-1--|
G-1~~~~~~~-1--1~~~~~~~-1~~~~-1--1~~~~-1--1~~~~-1--|
C-1~~~~~~~-1--1~~~~~~~-1~~~~-1--1~~~~-1--1~~~~-1--|

Guitar 1 & 2 & 3
D-------------------------------------------------|
A-------------------------------------------------|
F-------------------------------------------------|
C-1~~~~~~~-1--1~~~~~~~-1~~~~-4--4~~~~-4--4~~~~-4--|
G-1~~~~~~~-1--1~~~~~~~-1~~~~-4--4~~~~-4--4~~~~-4--|
C-1~~~~~~~-1--1~~~~~~~-1~~~~-4--4~~~~-4--4~~~~-4--|

Guitar 1 & 2 & 3
D-------------------------------------------------|
A-------------------------------------------------|
F-4~~~~~~~-4--4~~~~~~~-4~~~~-4--4~~~~-4--4~~~~-4--|
C-4~~~~~~~-4--4~~~~~~~-4~~~~-4--4~~~~-4--4~~~~-4--|
G-2~~~~~~~-2--2~~~~~~~-2~~~~-2--2~~~~-2--2~~~~-2--|
C-------------------------------------------------|

Guitar 1 & 2 & 3
D-------------------------------------------------|
A-------------------------------------------------|
F-4--6--6--6--6~~~~-6--6~~~~-6--6~~~~-------------|
C-4--6--6--6--6~~~~-6--6~~~~-6--6~~~~-x--x--x--x--|
G-2--4--4--4--4~~~~-4--4~~~~-4--4~~~~-x--x--x--x--|
C-------------------------------------x--x--x--x--|

Guitar 1 & 2 & 3
D-------------------------------------------------|
A-------------------------------------------------|
F-------------------------------------------------|
C-1~~~~~~~-1--1~~~~~~~-1~~~~-1--1~~~~-1--1~~~~-1--|
G-1~~~~~~~-1--1~~~~~~~-1~~~~-1--1~~~~-1--1~~~~-1--|
C-1~~~~~~~-1--1~~~~~~~-1~~~~-1--1~~~~-1--1~~~~-1--|

Guitar 1 & 2 & 3
D-------------------------------------------------|
A-------------------------------------------------|
F-------------------------------------------------|
C-1~~~~~~~-1--1~~~~~~~-1~~~~-4--4~~~~-4--4~~~~-4--|
G-1~~~~~~~-1--1~~~~~~~-1~~~~-4--4~~~~-4--4~~~~-4--|
C-1~~~~~~~-1--1~~~~~~~-1~~~~-4--4~~~~-4--4~~~~-4--|

Guitar 1 & 2 & 3
D-------------------------------------------------|
A-------------------------------------------------|
F-4~~~~~~~-4--4~~~~~~~-4~~~~-4--4~~~~-4--4~~~~-4--|
C-4~~~~~~~-4--4~~~~~~~-4~~~~-4--4~~~~-4--4~~~~-4--|
G-2~~~~~~~-2--2~~~~~~~-2~~~~-2--2~~~~-2--2~~~~-2--|
C-------------------------------------------------|

Guitar 1 & 2 & 3
D-------------------------------------------------|
A-------------------------------------------------|
F-4--6--6--6--6~~~~-6--6~~~~-6--6~~~~~\~~~~~~~~~~-|
C-4--6--6--6--6~~~~-6--6~~~~-6--6~~~~~\~~~~~~~~~~-|
G-2--4--4--4--4~~~~-4--4~~~~-4--4~~~~~\~~~~~~~~~~-|
C-------------------------------------------------|

Verse 2

Guitar 1
D-------------------------------------------------|
A-8~~~~-8--8--8~~~~-8--8~~~~-8--8~~~~-8--8~~~~~~~-|
F-x-----x--x--x-----x--x-----x--x-----x--x--------|
C-8~~~~-8--8--8~~~~-8--8~~~~-8--8~~~~-8--8--8--8--|
G-6~~~~-6--6--6~~~~-6--6~~~~-6--6~~~~-6--6--6--6--|
C-------------------------------------------------|

Guitar 1
D-------------------------------------------------|
A-8~~~~-8--8--8~~~~-8--8~~~~-11-11~~~-11-11~\~~~~-|
F-x-----x--x--x-----x--x-----x--x-----x--x--------|
C-8~~~~-8--8--8~~~~-8--8~~~~-11-11~~~-11-11~\~~~~-|
G-6~~~~-6--6--6~~~~-6--6~~~~-9--9~~~~-9--9~~\~~~~-|
C-------------------------------------------------|

Guitar 1
D-------------------------------------------------|
A-4~~~~-4--4--4~~~~-4--4~~~~-4--4~~~~-4--4~~~~~~~-|
F-x-----x--x--x-----x--x-----x--x-----x--x--------|
C-4~~~~-4--4--4~~~~-4--4~~~~-4--4~~~~-4--4--4--4--|
G-2~~~~-2--2--2~~~~-2--2~~~~-2--2~~~~-2--2--2--2--|
C-------------------------------------------------|

Guitar 1
D-------------------------------------------------|
A-4/-6--6--6--6~~~~-6--6~~~~-6--6~~~~-6--6~~~~~~~-|
F-x-----x--x--x-----x--x-----x--x-----x--x--------|
C-4/-6--6--6--6~~~~-6--6~~~~-6--6~~~~-6--6--6--6--|
G-2/-4--4--4--4~~~~-4--4~~~~-4--4~~~~-4--4--4--4--|
C-------------------------------------------------|

Guitar 1
D-------------------------------------------------|
A-8~~~~-8--8--8~~~~-8--8~~~~-8--8~~~~-8--8~~~~~~~-|
F-x-----x--x--x-----x--x-----x--x-----x--x--------|
C-8~~~~-8--8--8~~~~-8--8~~~~-8--8~~~~-8--8--8--8--|
G-6~~~~-6--6--6~~~~-6--6~~~~-6--6~~~~-6--6--6--6--|
C-------------------------------------------------|

Guitar 2
D-------------------------------------------------|
A-------8~~~~-9~~~~~~~~~~~~~~~~~~~~~~~~~~~~~~~~~~-|
F-8~~~~-------------------------------------------|
C-------------------------------------------------|
G-------------------------------------------------|
C-------------------------------------------------|

Guitar 1
D-------------------------------------------------|
A-8~~~~-8--8--8~~~~-8--8~~~~-11-11~~~-11-11~\~~~~-|
F-x-----x--x--x-----x--x-----x--x-----x--x--------|
C-8~~~~-8--8--8~~~~-8--8~~~~-11-11~~~-11-11~\~~~~-|
G-6~~~~-6--6--6~~~~-6--6~~~~-9--9~~~~-9--9~~\~~~~-|
C-------------------------------------------------|

Guitar 2
D-------------------------------------------------|
A-------------------------------------------------|
F-------------------------------------------------|
C-------------------------------------------------|
G-------------------------------------------------|
C-------------------------------------------------|

Guitar 1
D-------------------------------------------------|
A-4~~~~-4--4--4~~~~-4--4~~~~-4--4~~~~-4--4~~~~~~~-|
F-x-----x--x--x-----x--x-----x--x-----x--x--------|
C-4~~~~-4--4--4~~~~-4--4~~~~-4--4~~~~-4--4--4--4--|
G-2~~~~-2--2--2~~~~-2--2~~~~-2--2~~~~-2--2--2--2--|
C-------------------------------------------------|

Guitar 2
D-------------------------------------------------|
A-------9~~~~~~~~~~~~~~~~~~~~~~~~~~~~~~~~~~~~~~~~-|
F-8~~~~-------------------------------------------|
C-------------------------------------------------|
G-------------------------------------------------|
C-------------------------------------------------|

Guitar 1
D-------------------------------------------------|
A-4/-6--6--6--6~~~~-6--6~~~~-6--6~~~~-6--6~~~~~~~-|
F-x-----x--x--x-----x--x-----x--x-----x--x--------|
C-4/-6--6--6--6~~~~-6--6~~~~-6--6~~~~-6--6--6--6--|
G-2/-4--4--4--4~~~~-4--4~~~~-4--4~~~~-4--4--4--4--|
C-------------------------------------------------|

Guitar 2
D-------------------------------------------------|
A-------------------------------------------------|
F-10~^~~^~~^~~^~~^~~^~~^~~^~~^~~^~~^~~^~~^~~^~~~~-|
C-------------------------------------------------|
G-------------------------------------------------|
C-------------------------------------------------|

Guitar 3
D-------------------------------------------------|
A-------------------------------------------------|
F-------------------------------------------------|
C-------------------------------------------------|
G-------------------------------4~~~~-4~~~~-6~~~~-|
C-------------------------------------------------|

Guitar 1
D-------------------------------------------------|
A-8~~~~-8--8--8~~~~-8--8~~~~-8--8~~~~-8--8~~~~~~~-|
F-x-----x--x--x-----x--x-----x--x-----x--x--------|
C-8~~~~-8--8--8~~~~-8--8~~~~-8--8~~~~-8--8--8--8--|
G-6~~~~-6--6--6~~~~-6--6~~~~-6--6~~~~-6--6--6--6--|
C-------------------------------------------------|

Guitar 2
D-------------------------------------------------|
A-------8~~~~-9~~~~~~~~~~~~~~~~~~~~~~~~~~~~~~~~~~-|
F-8~~~~-------------------------------------------|
C-------------------------------------------------|
G-------------------------------------------------|
C-------------------------------------------------|

Guitar 3
D-------------------------------------------------|
A-------------------------------------------------|
F-------------------------------------------------|
C-8~~~~~~~~~~~~~~~~~~~~~~~~~~~~~~~~~~-8h-11p8\-6--|
G-------------------------------------------------|
C-------------------------------------------------|

Guitar 1
D-------------------------------------------------|
A-8~~~~-8--8--8~~~~-8--8~~~~-11-11~~~-11-11~\~~~~-|
F-x-----x--x--x-----x--x-----x--x-----x--x--------|
C-8~~~~-8--8--8~~~~-8--8~~~~-11-11~~~-11-11~\~~~~-|
G-6~~~~-6--6--6~~~~-6--6~~~~-9--9~~~~-9--9~~\~~~~-|
C-------------------------------------------------|

Guitar 2
D-------------------------------------------------|
A-------------------------------------------------|
F-------------------------------------------------|
C-------------------------------------------------|
G-------------------------------------------------|
C-------------------------------------------------|

Guitar 3
D-------------------------------------------------|
A-------------------------------------------------|
F-------------------------------------------------|
C-8~~~~~~~~~~~~~~~~~~~~~~----6--6~~~~-6--6--11~~~-|
G-------------------------------------------------|
C-------------------------------------------------|

Guitar 4 (Gradually great louder)
D-------------------------------------------------|
A-------------------------------------------------|
F-------------------------------------------6*~~~-|
C-------------------------------------------------|
G-------------------------------------------------|
C-------------------------------------------------|

Guitar 1
D-------------------------------------------------|
A-4~~~~-4--4--4~~~~-4--4~~~~-4--4~~~~-4--4~~~~~~~-|
F-x-----x--x--x-----x--x-----x--x-----x--x--------|
C-4~~~~-4--4--4~~~~-4--4~~~~-4--4~~~~-4--4--4--4--|
G-2~~~~-2--2--2~~~~-2--2~~~~-2--2~~~~-2--2--2--2--|
C-------------------------------------------------|

Guitar 2
D-------------------------------------------------|
A-------9~~~~~~~~~~~~~~~~~~~~~~~~~~~~~~~~~~~~~~~~-|
F-8~~~~-------------------------------------------|
C-------------------------------------------------|
G-------------------------------------------------|
C-------------------------------------------------|

Guitar 3
D-------------------------------------------------|
A-------------------------------------------------|
F-------------------------------------------------|
C-11~~~-9~~~~-9~~~~-9~~~~-9~~~~-8~~~~-8~~~~-8~~~~-|
G-------------------------------------------------|
C-------------------------------------------------|

Guitar 4
D-------------------------------------------------|
A-------------------------------------------------|
F-6*~~~-6*~~~-6*~~~-6*~~~-6*~~~-6*~~~-6*~~~-6*~~~-|
C-------------------------------------------------|
G-------------------------------------------------|
C-------------------------------------------------|

Guitar 1
D-------------------------------------------------|
A-4/-6--6--6--6~~~~-6--6~~~~-6--6~~~~-6--6~~~~~~~-|
F-x-----x--x--x-----x--x-----x--x-----x--x--------|
C-4/-6--6--6--6~~~~-6--6~~~~-6--6~~~~-6--6--6--6--|
G-2/-4--4--4--4~~~~-4--4~~~~-4--4~~~~-4--4--4--4--|
C-------------------------------------------------|

Guitar 2
D-------------------------------------------------|
A-------------------------------------------------|
F-10~^~~^~~^~~^~~^~~^~~^~~^~~^~~^~~^~~^~~^~~^~~~~-|
C-------------------------------------------------|
G-------------------------------------------------|
C-------------------------------------------------|

Guitar 3
D-------------------------------------------------|
A-------------------------------------------------|
F-------------------------------------------------|
C-8~~~~-6~~~~-6~~~~-6~~~~-6~~~~-4~~~~-4~~~~-6~~~~-|
G-------------------------------------------------|
C-------------------------------------------------|

Guitar 4
D-------------------------------------------------|
A-------------------------------------------------|
F-6*~~~-6*~~~-6*~~~-6*~~~-6*~~~-6*~~~-6*~~~-6*~~~-|
C-------------------------------------------------|
G-------------------------------------------------|
C-------------------------------------------------|

Pre Chorus 2

Guitar 1 & 3
D-------------------------------------------------|
A-------------------------------------------------|
F-------------------------------------------------|
C-6-----6-----6-----6-----6-----6-----6-----6--6--|
G-6-----6-----6-----6-----6-----6-----6-----6--6--|
C-6-----6-----6-----6-----6-----6-----6-----6--6--|
Pm.     .     .     .     .     .     .     .  .

Guitar 2
D-------------------------------------------------|
A-9~~~~~^~~^~~^~~^~~^~~^~~^~~^~~^~~^~~^~~^~~^~~^~-|
F-8~~~~~^~~^~~^~~^~~^~~^~~^~~^~~^~~^~~^~~^~~^~~^~-|
C-6~~~~~^~~^~~^~~^~~^~~^~~^~~^~~^~~^~~^~~^~~^~~^~-|
G-6~~~~~^~~^~~^~~^~~^~~^~~^~~^~~^~~^~~^~~^~~^~~^~-|
C-6~~~~~^~~^~~^~~^~~^~~^~~^~~^~~^~~^~~^~~^~~^~~^~-|

Guitar 4
D-------------------------------------------------|
A-------------------------------------------------|
F-6*~~~~~~~~~~~~~~~~~~~~~~~~~~~~~~~~~~~~~~~~~~~~~-|
C-------------------------------------------------|
G-------------------------------------------------|
C-------------------------------------------------|

Guitar 1 & 3
D-------------------------------------------------|
A-------------------------------------------------|
F-------------------------------------------------|
C-6-----6-----6-----6-----6/-9--9-----9-----9\-4--|
G-6-----6-----6-----6-----6/-9--9-----9-----9\-4--|
C-6-----6-----6-----6-----6/-9--9-----9-----9\-4--|
Pm.     .     .     .           .     .

Guitar 2
D-------------------7~~~~-------------------------|
A-~~^~~^~~^~~^~~^~~-------7~~~~-------------7~~~~-|
F-~~^~~^~~^~~^~~^~~-------------6~~~~-4~~~~-------|
C-~~^~~^~~^~~^~~^~~-------------------------------|
G-~~^~~^~~^~~^~~^~~-------------------------------|
C-~~^~~^~~^~~^~~^~~-------------------------------|

Guitar 1
D-------------------------------------------------|
A-------------------------------------------------|
F-------------------------------------------------|
C-4-----4-----4-----4-----4-----4-----4-----4-----|
G-4-----4-----4-----4-----4-----4-----4-----4-----|
C-4-----4-----4-----4-----4-----4-----4-----4-----|
Pm.     .     .     .     .     .     .     .

Guitar 2
D-------------------------------------------------|
A-7~~~~~^~~^~~^~~^~~^~~^~~^~~^~~^~~^~~^~~^~~^~~^~-|
F-6~~~~~^~~^~~^~~^~~^~~^~~^~~^~~^~~^~~^~~^~~^~~^~-|
C-4~~~~~^~~^~~^~~^~~^~~^~~^~~^~~^~~^~~^~~^~~^~~^~-|
G-4~~~~~^~~^~~^~~^~~^~~^~~^~~^~~^~~^~~^~~^~~^~~^~-|
C-4~~~~~^~~^~~^~~^~~^~~^~~^~~^~~^~~^~~^~~^~~^~~^~-|

Guitar 1 & 3
D-------------------------------------------------|
A-------------------------------------------------|
F-------------------------------------------------|
C-11~~~~~~~~~~~~~~~~~~~~~~~~~~~~~~~~~-x--x----x---|
G-11~~~~~~~~~~~~~~~~~~~~~~~~~~~~~~~~~-x--x----x---|
C-11~~~~~~~~~~~~~~~~~~~~~~~~~~~~~~~~~-x--x----x---|

Guitar 2
D-------------------------------------------------|
A-9~~~~~~~~~~~~~~~~~~~~~~~~~~~~~~~~~~-------------|
F-8~~~~~~~~~~~~~~~~~~~~~~~~~~~~~~~~~~-------------|
C-6~~~~~~~~~~~~~~~~~~~~~~~~~~~~~~~~~~-x--x----x---|
G-6~~~~~~~~~~~~~~~~~~~~~~~~~~~~~~~~~~-x--x----x---|
C-6~~~~~~~~~~~~~~~~~~~~~~~~~~~~~~~~~~-x--x----x---|

Chorus 2

Guitar 1 & 2 & 3
D-------------------------------------------------|
A-------------------------------------------------|
F-------------------------------------------------|
C-1~~~~~~~-1--1~~~~~~~-1~~~~-1--1~~~~-1--1~~~~-1--|
G-1~~~~~~~-1--1~~~~~~~-1~~~~-1--1~~~~-1--1~~~~-1--|
C-1~~~~~~~-1--1~~~~~~~-1~~~~-1--1~~~~-1--1~~~~-1--|

Guitar 1 & 2 & 3
D-------------------------------------------------|
A-------------------------------------------------|
F-------------------------------------------------|
C-1~~~~~~~-1--1~~~~~~~-1~~~~-4--4~~~~-4--4~~~~-4--|
G-1~~~~~~~-1--1~~~~~~~-1~~~~-4--4~~~~-4--4~~~~-4--|
C-1~~~~~~~-1--1~~~~~~~-1~~~~-4--4~~~~-4--4~~~~-4--|

Guitar 1 & 2 & 3
D-------------------------------------------------|
A-------------------------------------------------|
F-4~~~~~~~-4--4~~~~~~~-4~~~~-4--4~~~~-4--4~~~~-4--|
C-4~~~~~~~-4--4~~~~~~~-4~~~~-4--4~~~~-4--4~~~~-4--|
G-2~~~~~~~-2--2~~~~~~~-2~~~~-2--2~~~~-2--2~~~~-2--|
C-------------------------------------------------|

Guitar 1 & 2 & 3
D-------------------------------------------------|
A-------------------------------------------------|
F-4--6--6--6--6~~~~-6--6~~~~-6--6~~~~-------------|
C-4--6--6--6--6~~~~-6--6~~~~-6--6~~~~-x--x--x--x--|
G-2--4--4--4--4~~~~-4--4~~~~-4--4~~~~-x--x--x--x--|
C-------------------------------------x--x--x--x--|

Guitar 1 & 3
D-------------------------------------------------|
A-------------------------------------------------|
F-------------------------------------------------|
C-1~~~~~~~-1--1~~~~~~~-1~~~~-1--1~~~~-1--1~~~~-1--|
G-1~~~~~~~-1--1~~~~~~~-1~~~~-1--1~~~~-1--1~~~~-1--|
C-1~~~~~~~-1--1~~~~~~~-1~~~~-1--1~~~~-1--1~~~~-1--|

Guitar 2 (Tremolo Picking)
D-------------------------------------------------|
A-------------------------------------------------|
F-8--8--8--8--8--8--8--8--8--8--8--8--8--8--8--8--|
C-------------------------------------------------|
G-------------------------------------------------|
C-------------------------------------------------|

Guitar 1 & 3
D-------------------------------------------------|
A-------------------------------------------------|
F-------------------------------------------------|
C-1~~~~~~~-1--1~~~~~~~-1~~~~-4--4~~~~-4--4~~~~-4--|
G-1~~~~~~~-1--1~~~~~~~-1~~~~-4--4~~~~-4--4~~~~-4--|
C-1~~~~~~~-1--1~~~~~~~-1~~~~-4--4~~~~-4--4~~~~-4--|

Guitar 2 (Tremolo Picking)
D-------------------------------------------------|
A-------------------------------------------------|
F-8--8--8--8--8--8--8--8--8--8--8--8--8--8--8--8--|
C-------------------------------------------------|
G-------------------------------------------------|
C-------------------------------------------------|

Guitar 1 & 3
D-------------------------------------------------|
A-------------------------------------------------|
F-4~~~~~~~-4--4~~~~~~~-4~~~~-4--4~~~~-4--4~~~~-4--|
C-4~~~~~~~-4--4~~~~~~~-4~~~~-4--4~~~~-4--4~~~~-4--|
G-2~~~~~~~-2--2~~~~~~~-2~~~~-2--2~~~~-2--2~~~~-2--|
C-------------------------------------------------|

Guitar 2 (Tremolo Picking)
D-------------------------------------------------|
A-------------------------------------------------|
F-8--8--8--8--8--8--8--8--8--8--8--8--8--8--8--8--|
C-------------------------------------------------|
G-------------------------------------------------|
C-------------------------------------------------|

Guitar 1 & 3
D-------------------------------------------------|
A-------------------------------------------------|
F-4--6--6--6--6~~~~-6--6~~~~-6--6~~~~-------------|
C-4--6--6--6--6~~~~-6--6~~~~-6--6~~~~-x--x--x--x--|
G-2--4--4--4--4~~~~-4--4~~~~-4--4~~~~-x--x--x--x--|
C-------------------------------------x--x--x--x--|

Guitar 2 (Tremolo Picking)
D-------------------------------------------------|
A-------------------------------------------------|
F-8--8--8--8--8--8--8--8--8--8--8--8--------------|
C-------------------------------------x--x--x--x--|
G-------------------------------------x--x--x--x--|
C-------------------------------------x--x--x--x--|

Interlude

Guitar 1 & 3
D-------------------------------------------------|
A-------------------------------------------------|
F-4~~~~-4~~~~-4~~~~-4--4--4~~~~-4~~~~-4~~~~-4--4--|
C-4~~~~-4~~~~-4~~~~-4--4--4~~~~-4~~~~-4~~~~-4--4--|
G-2~~~~-2~~~~-2~~~~-2--2--2~~~~-2~~~~-2~~~~-2--2--|
C-------------------------------------------------|

Guitar 2
D--------------------------------------------------|
A--------------------------------------------------|
F--------------------------------------------------|
C-------------9~~~~-8~~~~~~~~~~-11~~~~~~~~~-6~~~~~-|
G--------------------------------------------------|
C--------------------------------------------------|

Guitar 1 & 3
D-------------------------------------------------|
A-------------------------------------------------|
F-4--6--6~~~~-6~~~~-6--6--6~~~~-6~~~~-6~~~~-6--6--|
C-4--6--6~~~~-6~~~~-6--6--6~~~~-6~~~~-6~~~~-6--6--|
G-2--4--4~~~~-4~~~~-4--4--4~~~~-4~~~~-4~~~~-4--4--|
C-------------------------------------------------|

Guitar 2
D-------------------------------------------------|
A-------------------------------------------------|
F-------------------------------------------------|
C-~~~~~~~~~~~~~~~~~-4~~~~-4~~~~-3~~~~-3~~~~-4~~~~-|
G-------------------------------------------------|
C-------------------------------------------------|

Guitar 1 & 3
D-------------------------------------------------|
A-------------------------------------------------|
F-4~~~~-4~~~~-4~~~~-4--4--4~~~~-4~~~~-4~~~~-4--4--|
C-4~~~~-4~~~~-4~~~~-4--4--4~~~~-4~~~~-4~~~~-4--4--|
G-2~~~~-2~~~~-2~~~~-2--2--2~~~~-2~~~~-2~~~~-2--2--|
C-------------------------------------------------|

Guitar 2
D--------------------------------------------------|
A--------------------------------------------------|
F--------------------------------------------------|
C-9~~~~~~~~~~-9~~~~-8~~~~~~~~~~-11~~~~~~~~~-6~~~~~-|
G--------------------------------------------------|
C--------------------------------------------------|

Guitar 1 & 3
D-------------------------------------------------|
A-------------------------------------------------|
F-4--6--6~~~~-6~~~~-6--6--6--6--6~~~~-6--6--6~~~~-|
C-4--6--6~~~~-6~~~~-6--6--6--6--6~~~~-6--6--6~~~~-|
G-2--4--4~~~~-4~~~~-4--4--4--4--4~~~~-4--4--4~~~~-|
C-------------------------------------------------|

Guitar 2
D-------------------------------------------------|
A-------------------------------------------------|
F-------------------------------------------------|
C-~~~~~~~~~~~~~~~~~-4~~~~-4~~~~-6~~~~-6~~~~-6~~~~-|
G-------------------------------------------------|
C-------------------------------------------------|

Guitar 1 & 3
D-------------------------------------------------|
A-------------------------------------------------|
F-4~~~~-4~~~~-4~~~~-4--4--4~~~~-4~~~~-4~~~~-4--4--|
C-4~~~~-4~~~~-4~~~~-4--4--4~~~~-4~~~~-4~~~~-4--4--|
G-2~~~~-2~~~~-2~~~~-2--2--2~~~~-2~~~~-2~~~~-2--2--|
C-------------------------------------------------|

Guitar 2
D-------------------------------------------------|
A-------------------------------------------------|
F-------------------------------------------------|
C-9~~~~~~~~~~-9~~~~-8~~~~~~~~~~-11~~~~~~~~~-9~~~~-|
G-------------------------------------------------|
C-------------------------------------------------|

Guitar 1 & 3
D-------------------------------------------------|
A-------------------------------------------------|
F-4--6--6~~~~-6~~~~-6--6--------------------------|
C-4--6--6~~~~-6~~~~-6--6--x--x--x--x--x--x--x--x--|
G-2--4--4~~~~-4~~~~-4--4--x--x--x--x--x--x--x--x--|
C-------------------------x--x--x--x--x--x--x--x--|

Guitar 2 (Tremolo picking)
D-------------------------------------------------|
A-------------------------------------------------|
F-------------------------------------------------|
C-11-11-11-11-11-11-11-11-11-11-11-11-11-11-11-11-|
G-------------------------------------------------|
C-------------------------------------------------|

Guitar Solo (or something like that)

Guitar 1 & 3
D-------------------------------------------------|
A-------------------------------------------------|
F-------------------------------------------------|
C-1~~~~~~~~~~~~~~~~-1-----1~~~~~~~~~~~~~~~~-1~~~~-|
G-1~~~~~~~~~~~~~~~~-1-----1~~~~~~~~~~~~~~~~-1~~~~-|
C-1~~~~~~~~~~~~~~~~-1-----1~~~~~~~~~~~~~~~~-1~~~~-|

Guitar 2
D-------------------------------------------------|
A-------------------------------------------------|
F-8--8--8--8--8--8--8--8--8--8--8--8--8--8--8--8--|
C-------------------------------------------------|
G-------------------------------------------------|
C-------------------------------------------------|

Guitar 1 & 3
D-------------------------------------------------|
A-------------------------------------------------|
F-------------------------------------------------|
C-~~~~~-1-----1~~~~~~~~~~-1-----1~~~~~~~~~~-1-----|
G-~~~~~-1-----1~~~~~~~~~~-1-----1~~~~~~~~~~-1-----|
C-~~~~~-1-----1~~~~~~~~~~-1-----1~~~~~~~~~~-1-----|

Guitar 2
D-------------------------------------------------|
A-------------------------------------------------|
F-8--8--8--8--8--8--8--8--8--8--8--8--8--8--8--8--|
C-------------------------------------------------|
G-------------------------------------------------|
C-------------------------------------------------|

Guitar 1 & 3
D-------------------------------------------------|
A-------------------------------------------------|
F-------------------------------------------------|
C-1~~~~~~~~~~~~~~~~-1-----1~~~~~~~~~~~~~~~~-1~~~~-|
G-1~~~~~~~~~~~~~~~~-1-----1~~~~~~~~~~~~~~~~-1~~~~-|
C-1~~~~~~~~~~~~~~~~-1-----1~~~~~~~~~~~~~~~~-1~~~~-|

Guitar 2
D-------------------------------------------------|
A-------------------------------------------------|
F-8--8--8--8--8--8--8--8--8--8--8--8--8--8--8--8--|
C-------------------------------------------------|
G-------------------------------------------------|
C-------------------------------------------------|

Guitar 1 & 3
D-------------------------------------------------|
A-------------------------------------------------|
F-------------------------------------------------|
C-~~~~~-4-----4~~~~~~~~~~-4-----4~~~~~~~~~~-4-----|
G-~~~~~-4-----4~~~~~~~~~~-4-----4~~~~~~~~~~-4-----|
C-~~~~~-4-----4~~~~~~~~~~-4-----4~~~~~~~~~~-4-----|

Guitar 2
D-------------------------------------------------|
A----------------------------9h-11~~~~~~~~--------|
F------------------------------------------11-----|
C-------------------------------------------------|
G----------4--5--7--5--7--9-----------------------|
C-4--5--7-----------------------------------------|
Pm.  .  .  .  .  .  .  .  .

Guitar 1 & 3
D-------------------------------------------------|
A-------------------------------------------------|
F-4~~~~~~~~~~~~~~~~-4-----4~~~~~~~~~~~~~~~~-4~~~~-|
C-4~~~~~~~~~~~~~~~~-4-----4~~~~~~~~~~~~~~~~-4~~~~-|
G-2~~~~~~~~~~~~~~~~-2-----2~~~~~~~~~~~~~~~~-2~~~~-|
C-------------------------------------------------|

Guitar 2
D--------------------------------------------------|
A-------------------------------------8-----8~~~~~-|
F-8*~~~~~~~~~~~~~~~-8*~~~~~~~~~~~~~~~-8-----8~~~~~-|
C--------------------------------------------------|
G--------------------------------------------------|
C--------------------------------------------------|

Guitar 1 & 3
D-------------------------------------------------|
A-------------------------------------------------|
F-~~~~~-4-----4~~~~~~~~~~-4-----4~~~~~~~~~~-4-----|
C-~~~~~-4-----4~~~~~~~~~~-4-----4~~~~~~~~~~-4-----|
G-~~~~~-2-----2~~~~~~~~~~-2-----2~~~~~~~~~~-2-----|
C-------------------------------------------------|

Guitar 2
D-------------------------------------------------|
A-~~~~~-8-----8~~~~~~~~~~-------------------------|
F-~~~~~-8-----8~~~~~~~~~~-8-----------------------|
C-------------------------------6-----6-----6-----|
G-------------------------------------------------|
C-------------------------------------------------|
Pm                              .     .     .

Guitar 1 & 3
D-------------------------------------------------|
A-------------------------------------------------|
F-4-----6-----6-----6-----6~~~~~~~~~~-6-----6-----|
C-4-----6-----6-----6-----6~~~~~~~~~~-6-----6-----|
G-2-----4-----4-----4-----4~~~~~~~~~~-4-----4-----|
C-------------------------------------------------|

Guitar 2
D-------------------------------------------------|
A-11b~~~~~~~~~~~~~~~~~~~~-11b~~~~~~~~~~~~~~~~~~~~-|
F-14b~~~~~~~~~~~~~~~~~~~~-14b~~~~~~~~~~~~~~~~~~~~-|
C-------------------------------------------------|
G-------------------------------------------------|
C-------------------------------------------------|

Guitar 1 & 3
D-------------------------------------------------|
A-------------------------------------------------|
F-6~~~~~~~~~~~~~~~~~~~~~~~~~~~~~~~~~~~\~~~~~~~~~~-|
C-6~~~~~~~~~~~~~~~~~~~~~~~~~~~~~~~~~~~\~~~~~~~~~~-|
G-4~~~~~~~~~~~~~~~~~~~~~~~~~~~~~~~~~~~\~~~~~~~~~~-|
C-------------------------------------------------|

Guitar 1 & 3
D-------------------------------------------------|
A-11~~~~~~~~~~~~~~~~~~~~~~~~~~~~~~~-/~\~~~~~~~~~~-|
F-14~~~~~~~~~~~~~~~~~~~~~~~~~~~~~~~-/~\~~~~~~~~~~-|
C-------------------------------------------------|
G-------------------------------------------------|
C-------------------------------------------------|

Chorus 3

Guitar 1
D-------------------------------------------------|
A-------------------------------------------------|
F-------------------------------------------------|
C-1~~~~~~~-1--1~~~~-1~~~~-1--1--1~~~~-1--1~~~~-1--|
G-1~~~~~~~-1--1~~~~-1~~~~-1--1--1~~~~-1--1~~~~-1--|
C-1~~~~~~~-1--1~~~~-1~~~~-1--1--1~~~~-1--1~~~~-1--|

Guitar 2
D-------------------------------------------------|
A-------------------------------------------------|
F-------------------------------------------------|
C---------------------------------/12~~~~\~~~~~~~-|
G---------------------------------/12~~~~\~~~~~~~-|
C---------------------------------/12~~~~\~~~~~~~-|

Guitar 3
D-------------------------------------------------|
A-------------------------------------------------|
F-8~~~~~~~-8--8~~~~-8~~~~-8--8--8~~~~-8--8~~~~-8--|
C-8~~~~~~~-8--8~~~~-8~~~~-8--8--8~~~~-8--8~~~~-8--|
G-6~~~~~~~-6--6~~~~-6~~~~-6--6--6~~~~-6--6~~~~-6--|
C-------------------------------------------------|

Guitar 1
D-------------------------------------------------|
A-------------------------------------------------|
F-------------------------------------------------|
C-1~~~~~~~-1--1~~~~-1--1~~~~-4--4~~~~-4--4~~~~-4--|
G-1~~~~~~~-1--1~~~~-1--1~~~~-4--4~~~~-4--4~~~~-4--|
C-1~~~~~~~-1--1~~~~-1--1~~~~-4--4~~~~-4--4~~~~-4--|

Guitar 2 & 3
D-------------------------------------------------|
A-------------------------------------------------|
F-8~~~~~~~-8--8~~~~-8--8~~~~-11-11~~~-11-11~~~-11-|
C-8~~~~~~~-8--8~~~~-8--8~~~~-11-11~~~-11-11~~~-11-|
G-6~~~~~~~-6--6~~~~-6--6~~~~-9--9~~~~-9--9~~~~-9--|
C-------------------------------------------------|

Guitar 1 & 2 & 3
D-------------------------------------------------|
A-------------------------------------------------|
F-4~~~~~~~-4--4~~~~~~~-4~~~~-4--4~~~~-4--4~~~~-4--|
C-4~~~~~~~-4--4~~~~~~~-4~~~~-4--4~~~~-4--4~~~~-4--|
G-2~~~~~~~-2--2~~~~~~~-2~~~~-2--2~~~~-2--2~~~~-2--|
C-------------------------------------------------|

Guitar 1 & 2 & 3
D-------------------------------------------------|
A-------------------------------------------------|
F-4--6--6--6--6~~~~-6--6~~~~-6--6~~~~-------------|
C-4--6--6--6--6~~~~-6--6~~~~-6--6~~~~-x--x--x--x--|
G-2--4--4--4--4~~~~-4--4~~~~-4--4~~~~-x--x--x--x--|
C-------------------------------------x--x--x--x--|

Guitar 1 & 3
D-------------------------------------------------|
A-------------------------------------------------|
F-------------------------------------------------|
C-1~~~~~~~-1--1~~~~~~~-1~~~~-1--1~~~~-1--1~~~~-1--|
G-1~~~~~~~-1--1~~~~~~~-1~~~~-1--1~~~~-1--1~~~~-1--|
C-1~~~~~~~-1--1~~~~~~~-1~~~~-1--1~~~~-1--1~~~~-1--|

Guitar 2 (Tremolo Picking)
D-------------------------------------------------|
A-------------------------------------------------|
F-8--8--8--8--8--8--8--8--8--8--8--8--8--8--8--8--|
C-------------------------------------------------|
G-------------------------------------------------|
C-------------------------------------------------|

Guitar 1 & 3
D-------------------------------------------------|
A-------------------------------------------------|
F-------------------------------------------------|
C-1~~~~~~~-1--1~~~~~~~-1~~~~-4--4~~~~-4--4~~~~-4--|
G-1~~~~~~~-1--1~~~~~~~-1~~~~-4--4~~~~-4--4~~~~-4--|
C-1~~~~~~~-1--1~~~~~~~-1~~~~-4--4~~~~-4--4~~~~-4--|

Guitar 2 (Tremolo Picking)
D-------------------------------------------------|
A-------------------------------------------------|
F-8--8--8--8--8--8--8--8--8--8--8--8--8--8--8--8--|
C-------------------------------------------------|
G-------------------------------------------------|
C-------------------------------------------------|

Guitar 1 & 3
D-------------------------------------------------|
A-------------------------------------------------|
F-4~~~~~~~-4--4~~~~~~~-4~~~~-4--4~~~~-4--4~~~~-4--|
C-4~~~~~~~-4--4~~~~~~~-4~~~~-4--4~~~~-4--4~~~~-4--|
G-2~~~~~~~-2--2~~~~~~~-2~~~~-2--2~~~~-2--2~~~~-2--|
C-------------------------------------------------|

Guitar 2 (Tremolo Picking)
D-------------------------------------------------|
A-------------------------------------------------|
F-------------------------------------------------|
C-9--9--9--9--9--9--9--9--9--9--9--9--9--9--9--9--|
G-------------------------------------------------|
C-------------------------------------------------|

Guitar 1 & 3
D-------------------------------------------------|
A-------------------------------------------------|
F-4--6--6--6--6~~~~-6--6~~~~-6--6~~~~-------------|
C-4--6--6--6--6~~~~-6--6~~~~-6--6~~~~-x--x--x--x--|
G-2--4--4--4--4~~~~-4--4~~~~-4--4~~~~-x--x--x--x--|
C-------------------------------------x--x--x--x--|

Guitar 2 (Tremolo Picking)
D-------------------------------------------------|
A-------------------------------------------------|
F-------------------------------------------------|
C-8--8--8--8--8--8--8--8--8--8--8--8--8--8--8--8--|
G-------------------------------------------------|
C-------------------------------------------------|

Guitar 1 & 3
D-------------------------------------------------|
A-------------------------------------------------|
F-------------------------------------------------|
C-1~~~~~~~-1--1~~~~~~~-1~~~~-4--4~~~~-4--4~~~~-4--|
G-1~~~~~~~-1--1~~~~~~~-1~~~~-4--4~~~~-4--4~~~~-4--|
C-1~~~~~~~-1--1~~~~~~~-1~~~~-4--4~~~~-4--4~~~~-4--|

Guitar 2 (Tremolo Picking)
D-------------------------------------------------|
A-------------------------------------------------|
F-------------------------------------------------|
C-8--8--8--8--8--8--8--8--8--8--8--8--11-11-11-11-|
G-------------------------------------------------|
C-------------------------------------------------|

Guitar 1 & 3
D-------------------------------------------------|
A-------------------------------------------------|
F-4~~~~~~~-4--4~~~~~~~-4~~~~-4--4~~~~-4--4~~~~-4--|
C-4~~~~~~~-4--4~~~~~~~-4~~~~-4--4~~~~-4--4~~~~-4--|
G-2~~~~~~~-2--2~~~~~~~-2~~~~-2--2~~~~-2--2~~~~-2--|
C-------------------------------------------------|

Guitar 2 (Tremolo Picking)
D-------------------------------------------------|
A-------------------------------------------------|
F-------------------------------------------------|
C-9--9--9--9--9--9--9--9--9--9--9--9--9--9--9--9--|
G-------------------------------------------------|
C-------------------------------------------------|

Guitar 1 & 3
D-------------------------------------------------|
A-------------------------------------------------|
F-4--6--6--6--6~~~~-6--6~~~~-6--6~~~~-------------|
C-4--6--6--6--6~~~~-6--6~~~~-6--6~~~~-x--x--x--x--|
G-2--4--4--4--4~~~~-4--4~~~~-4--4~~~~-x--x--x--x--|
C-------------------------------------x--x--x--x--|

Guitar 2 (Tremolo Picking)
D-------------------------------------------------|
A-------------------------------------------------|
F-------------------------------------------------|
C-11-11-11-11-11-11-11-11-11-11-11-11-11-11-11-11-|
G-------------------------------------------------|
C-------------------------------------------------|

Guitar 1 & 3
D-------------------------------------------------|
A-------------------------------------------------|
F-------------------------------------------------|
C-1~~~~~~~-1--1~~~~~~~-1~~~~-4--4~~~~-4--4~~~~-4--|
G-1~~~~~~~-1--1~~~~~~~-1~~~~-4--4~~~~-4--4~~~~-4--|
C-1~~~~~~~-1--1~~~~~~~-1~~~~-4--4~~~~-4--4~~~~-4--|

Guitar 2 (Tremolo Picking)
D-------------------------------------------------|
A-------------------------------------------------|
F-------------------------------------------------|
C-8--8--8--8--8--8--8--8--8--8--8--8--11-11-11-11-|
G-------------------------------------------------|
C-------------------------------------------------|

Guitar 1 & 3
D-------------------------------------------------|
A-------------------------------------------------|
F-4~~~~~~~-4--4~~~~~~~-4~~~~-4--4~~~~-4--4~~~~-4--|
C-4~~~~~~~-4--4~~~~~~~-4~~~~-4--4~~~~-4--4~~~~-4--|
G-2~~~~~~~-2--2~~~~~~~-2~~~~-2--2~~~~-2--2~~~~-2--|
C-------------------------------------------------|

Guitar 2 (Tremolo Picking)
D-------------------------------------------------|
A-------------------------------------------------|
F-------------------------------------------------|
C-9--9--9--9--9--9--9--9--9--9--9--9--9--9--9--9--|
G-------------------------------------------------|
C-------------------------------------------------|

Guitar 1 & 3
D-------------------------------------------------|
A-------------------------------------------------|
F-4--6--6--6--6~~~~-6--6~~~~-6--6~~~~-------------|
C-4--6--6--6--6~~~~-6--6~~~~-6--6~~~~-x--x--x--x--|
G-2--4--4--4--4~~~~-4--4~~~~-4--4~~~~-x--x--x--x--|
C-------------------------------------x--x--x--x--|

Guitar 2 (Tremolo Picking)
D-------------------------------------------------|
A-------------------------------------------------|
F-------------------------------------------------|
C-11-11-11-11-11-11-11-11-11-11-11-11-11-11-11-11-|
G-------------------------------------------------|
C-------------------------------------------------|

Outro

Guitar 1 & 3
D-------------------------------------------------|
A-------------------------------------------------|
F-------------------------------------------------|
C-1~~~~~~~~~~~~~~~~~~~~~~~~~~~~~~~~~~~~~~~~~~~~~~-|
G-1~~~~~~~~~~~~~~~~~~~~~~~~~~~~~~~~~~~~~~~~~~~~~~-|
C-1~~~~~~~~~~~~~~~~~~~~~~~~~~~~~~~~~~~~~~~~~~~~~~-|

Guitar 2
D-------------------------------------------------|
A-------------------------------------------------|
F-8~~~~~~~~~~~~~~~~~~~~~~~~~~~~~~~~~~~~~~~~~~~~~~-|
C-------------------------------------------------|
G-------------------------------------------------|
C-------------------------------------------------|

Tab Legend
h  -  hammer-on
p  -  pull-off
/  -  slide up
\  -  slide down
ps/-  pickslide up
ps\-  pickslide down
~  -  let ring
pm.-  palm mute
b  -  bend
r  -  return from bend
*  -  harmonic
x  -  dead note
^  -  Whammy bar
^\ -  Whammy bar (hold down)

Alright! 4 guitar parts done in 1 tab. But wasn’t as hard as I thought... Tell me how I 
oh and one last thing... ROCK OUT!!!!
comments
We did not receive enough feedback on this tab! Please rate:
1 2 3 4 5
I want to post or [tab]
guest
You may want to rate the tab now too:
select rating
Please do not post tabs as comments. Select "correction" instead!