Oops, an error
Loading. Please wait.

Come Clean Tab

4,422 views 3 this week
3 commentsread comments
1 2 3 4 5
worth learning
x 5
add to favorites launch autoscroll
font size
0
reset
Autoscroll
+/-
esc
set tempo
stop
Contributor
WARNING: You are trying to view
                                    content from Ultimate-Guitar.com
                                    in an unauthorized application,
                                    which is prohibited.

                                    Please use an official Ultimate
                                    Guitar Tabs application for iPhone,
                                    iPad or Android to access legitimate
                                    chords, guitar, bass, and drum tabs
                                    from Ultimate-Guitar.com database.

                                    Type "ultimate guitar tabs" in Apple
                                    App Store's or Android Market's
                                    search to find the application.
Band- Puddle Of Mudd
Song- Come Clean

1.CONTROL

Tuning: Drop Db (Db-Ab-Db-Gb-Bb-Eb)

Intro/Chorus (Gtr. 1)

p: pull-on
h: hammer off
/: slide up
( ): palm mute

Eb|------------------------------------------------|
Bb|------------------------------------------------|
Gb|-------------------------5-5-5-5-5--------------|
Db|--0-0-0-0-0-3-3-3-3-3-2--5-5-5-5-5-5-5-5-5-5-3--|
Ab|--0-0-0-0-0-3-3-3-3-3-2--3-3-3-3-3-5-5-5-5-5-3--|
Db|--0-0-0-0-0-3-3-3-3-3-2------------5-5-5-5-5-3--|

Intro/Chorus (Gtr. 2)

Eb|-----------------------------------------|
Bb|-----------------------------------------|
Gb|---------------------9h10-10-10-10/12----|
Db|--10h12-12-12-12p10----------------------|
Ab|-----------------------------------------|
Db|-----------------------------------------|

Eb|----------------------------------------------|
Bb|----------------------------------------------|
Gb|----------------------------------------------|
Db|--12h14-14-14-14p12--10-10-10-10-10p12-12-12--|
Ab|----------------------------------------------|
Db|----------------------------------------------|

Eb|--------------------------------------|
Bb|--------------------------------------|
Gb|---------------------9-10-12-10-9-12--|
Db|--10h12-12-12-12p10-------------------|
Ab|--------------------------------------|
Db|--------------------------------------|

Eb|----------------------------------------------|
Bb|----------------------------------------------|
Gb|----------------------------------------------|
Db|--12-12-12-12-12-12-12-12--10-10-10-10-10-10--|
Ab|----------------------------------------------|
Db|----------------------------------------------|

Verse

Eb|-------------------------------------------------------|
Bb|-------------------------------------------------------|
Gb|----------------------------------9----10----9----9-9--|
Db|--12----12-12----------10-9---------------12-----------|
Ab|-------------------------------12----------------------|
Db|--------------12h14------------------------------------|

Eb|----------------------------------------------------|
Bb|----------------------------------------------------|
Gb|--10-10-10-10-10-10-10-10/-12-12-12-12-12-12-12-12--|
Db|--x--x--x--X--x--x--x--x-/--x--x--x--x--x--x--x--x--|
Ab|--8--8--8--8--8--8--8--8-/-10-10-10-10-10-10-10-10--|
Db|----------------------------------------------------|

Chorus (Gtr.1): Same as intro

Chorus (Gtr. 2)
Eb|------------------------------------------------------|
Bb|------------------------------------------------------|
Gb|------------------------------------------------------|
Db|--10h12-12-12-12-12-12-12-12-12-12-12-12-12-12-12-12--|
Ab|------------------------------------------------------|
Db|------------------------------------------------------|

Eb|-----------------------------------------------|
Bb|-----------------------------------------------|
Gb|--------------------------12-12-12-12----------|
Db|--12h14-14-14-14-14-14-14-------------9-9-9-9--|
Ab|-----------------------------------------------|
Db|-----------------------------------------------|

Eb|---------------------------------------------------|
Bb|---------------------------------------------------|
Gb|---------------------------------------------------|
Db|--14-14-14-14-14-14-14-14-14-14-14-14-14-14-14-14--|
Ab|---------------------------------------------------|
Db|---------------------------------------------------|

Eb|------------------------------------|
Bb|------------------------------------|
Gb|------------------------------------|
Db|--12-12-12-12-12-12-12-12-12-12-12--|
Ab|------------------------------------|
Db|------------------------------------|

Interlude

Eb|----------------------|
Bb|------------10----15--|
Gb|------------x-----x---|
Db|--0----0----7-----12--|
Ab|--0----0--------------|
Db|--0----0--------------|


Bridge (Gtr. 2)

Eb|------------------------------------------|
Bb|------------------------------------------|
Gb|------------------------------------------|
Db|--(3-5-5-5-5-5-5-5-5-5-5-5-8-8-8-8)-------|
Ab|------------------------------------------|
Db|------------------------------------------|

Bridge (Gtr. 1)

Eb|--------------------------------------------------|
Bb|--------------------------------------------------|
Gb|--5/5---------------------------5/7-7--5/7-7--10--|
Db|--3/7-Do this a few times then--3/5-5--3/7-7--10--|
Ab|--3/5---------------------------3/5-5--3/5-5--8---|
Db|--------------------------------------------------|

2.DRIFT AND DIE

Tuning low to high: Db, Ab, Db, Gb, Bb, Db

Intro: Acoustic
|-3-|-2-|-3-|-3-|
|-3-|-3-|-3-|-3-|
|-2-|-2-|---|---|
|-0-|-0-|-2-|-0-|
|---|---|-3-|-2-|
|---|---|---|---|

Chorus:
|----------------------|
|----------------------|
|-7-5-4----------------|
|-7-5-4-3—3-5555555----|
|-5-3-2-3—3-5555555----|
|-------3—3-5555555----|

Fill:
|--------------------------------------------------|
|-5-4-2-4-5-7--------------------------------------|
|--------------------------------------------------|
|--------------------------------------------------|
|--------------------------------------------------|
|--------------------------------------------------|                        1st ending
                                        |----------|
|--------------------------------------------|-----|
|--------------------------------------------|-----|
|-7\5/7-------5-------5-7-5—7-5-4------------|-----|
|-7\5/7-3-3-3-5-3-3-3-5-7-5—7-5-4-3—3/555555-|-0---|
|-5\3/5-3-3-3-3-3-3-3-3-5-3—5-3-2-3—3/555555-|-0---|
|-------3-3-3---3-3-3-------------3—3/555555-|-0---|

Back to chorus w/ acoustic, but kind of arpeggiated.

3.OUT OF MY HEAD

TUNING: Drop D and down 1/2 step (Db Ab Db Gb Bb Eb)

     Riff 1:
    Eb|----------------------------------------|
    Bb|----------------------------------------|
    Gb|----------------------------------------| [x]=natural harmonic
    Db|----------------------------------------| bend the last 8 a little
    Ab|----------------------------------------|
    Db|-8-8-8--0-0-[9]--0-0-0-[9]--0-0-0-[9]-0-|

     Riff 2:
    Eb|---------------------------------------------------|
    Bb|---------------------------------------------------|
    Gb|---------------------------------------------------|
    Db|-------------------------------10-10-10-10-8-8-8-8-|
    Ab|-------------------------------10-10-10-10-8-8-8-8-|
    Db|-8-8-8--0-0-[9]--0-0-0-[9]--0--10-10-10-10-8-8-8-8-|

     Riff 3:
    Eb|----------------------------------------|
    Bb|----------------------------------------|
    Gb|----------------------------------------|
    Db|-8-8-8--0-0------0-0-0------0-0-0-----0-|
    Ab|-8-8-8--0-0------0-0-0------0-0-0-----0-|
    Db|-8-8-8--0-0-[9]--0-0-0-[9]--0-0-0-[9]-0-|

     Riff 4:
    Eb|---------------------------------------------------|
    Bb|---------------------------------------------------|
    Gb|---------------------------------------------------|
    Db|-8-8-8--0-0------0-0-0------0--10-10-10-10-8-8-8-8-|
    Ab|-8-8-8--0-0------0-0-0------0--10-10-10-10-8-8-8-8-|
    Db|-8-8-8--0-0-[9]--0-0-0-[9]--0--10-10-10-10-8-8-8-8-|

     Riff 5: let ring...
    Eb|---|
    Bb|---|
    Gb|---|
    Db|-0-|
    Ab|-0-|
    Db|-0-|

     Riff 6: (clean)
    Eb|-----2---3---5------2---3---2-|
    Bb|---3---3---3------3---3---3---|
    Gb|------------------------------|
    Db|-0--------------0-------------|
    Ab|------------------------------|
    Db|------------------------------|

     Riff 7:
    Eb|---------------------|
    Bb|---------------------|
    Gb|---------------------|
    Db|-10-10-10-10-8-8-8-8-|
    Ab|-10-10-10-10-8-8-8-8-|
    Db|-10-10-10-10-8-8-8-8-|

     Riff 8:
    Eb|-----------------------------------|
    Bb|-----------------------------------|
    Gb|-----------------------------------|
    Db|-10--10-10-10-10-10--8--8-8-8-8-10-|
    Ab|-10--10-10-10-10-10--8--8-8-8-8-10-|
    Db|-10--10-10-10-10-10--8--8-8-8-8-10-|

     Riff 9a:
    Eb|--------------------|
    Bb|--------------------|
    Gb|--------------------|
    Db|-0-----10-----3-----|
    Ab|-0-----10-----3-----|
    Db|-0-----10-----3-----|

     Riff 9b:
    Eb|---------------------------|
    Bb|---------------------------|
    Gb|-7--------5----------------| TP=tremlo pick
    Db|-x--------x-------3--------| the last octave is sometimes played
    Ab|-5--------3-------x--------| xx3x5x instead of 3x3xxx
    Db|------------------3--------|
     TP -        -       -

     Riff 10:
    Eb|-------------------------------|
    Bb|-------------------------------|
    Gb|------------------7/9-9/12-12--|
    Db|-10-10-10-3-3-3-0-x/x-x/x--x---|
    Ab|-10-10-10-3-3-3-0-5/7-7/10-10--|
    Db|-10-10-10-3-3-3-0--------------|

     Riff 11:
    Eb|--------------------------------|
    Bb|--------------------------------|
    Gb|--------------------------------|
    Db|-10-10-10-3-3-3-8-8-8-8-8-8-8-8-|
    Ab|-10-10-10-3-3-3-8-8-8-8-8-8-8-8-|
    Db|-10-10-10-3-3-3-8-8-8-8-8-8-8-8-|

     Riff 12:
    Eb|----------------------------|
    Bb|----------------------------|
    Gb|------------------7/5-5-----|
    Db|-10-10-10-3-3-3-0-x/x-x-3-3-|
    Ab|-10-10-10-3-3-3-0-5/3-3-x-x-|
    Db|-10-10-10-3-3-3-0-------3-3-|

     Riff 13:
    Eb|------------------------------------------|
    Bb|------------------------------------------|
    Gb|------------------------------------------| PM=palm mute
    Db|-10-10-10-3-3-3-8-8-8-0-0-0-3-3-3-8-8-8-0-|
    Ab|-10-10-10-3-3-3-8-8-8-0-0-0-3-3-3-8-8-8-0-|
    Db|-10-10-10-3-3-3-8-8-8-0-0-0-3-3-3-8-8-8-0-|
     PM                                        -

4.NOBODY TOLD ME

Drop Db:
Db Ab Db Gb Bb Eb

Intro:
gtr. 1
Eb--------||-----------------------------------------------------|
Db--------||-----------------------------------------------------|
Db--------||-----------------------------------------------------|
Db-0-----||--0----------------------6-------------------------5--|
Ab-0-----||--0----------------------6-------------------------5--|
Db-0-----||--0----------------------6-------------------------5--|

gtr. 2
Eb--------||-----------------------------------------------|
Bb--------||-----------------------------------------------|
Gb--------||-----------------------------------------------|
Db-0-----||-0—7—0—7—0--7/8—8—0—0—8—0—5—0—5—0—6—0—6—0—0--6--|
Ab-0-----||------------------------------------------------|
Db-0-----||------------------------------------------------|

Verse 1:  no guitar is played, bass only

Chorus:  (listen for timing) (gtr.2 plays in some parts distantly intro gtr.2)
Eb-----------------------------|
Bb-----------------------------|
Gb-----------------------------|
Db—0-----------6------------5--|
Ab—0-----------6------------5--|
Db—0-----------6------------5--|


Verses 2&3: (heavy distortion)
Eb-------------------------------------------------------------------------------------|
Bb-------------------------------------------------------------------------------------|
Gb-------------------------------------------------------------------------------------|
Db-0-0-0-0-0-0-0-0-0-0-0-0-6-6-6-6-6-6-6-5--5-5-5-5-5--5-5-----------------------------|
Ab-0-0-0-0-0-0-0-0-0-0-0-0-6-6-6-6-6-6-6-5--5-5-5-5-5--5-5-----------------------------|
Db-0-0-0-0-0-0-0-0-0-0-0-0-6-6-6-6-6-6-6-5--5-5-5-5-5--5-5---0-0-----------------------|

Bridge:  palm muted x3, after then distortion (work it out, timing & strumming)

Eb------------------------------------------------------------------------------------------------|
Bb------------------------------------------------------------------------------------------------|
Gb------------------------------------- 5-5-5-5------------------------------------------5-5-5-5--|
Db-7-7-7-0-5-5-5-5-0-5-5-5-0—3-3-3-3------7-7-7-0-5-5-5-5-0-5-5-5-0—3-3-3-3-----------------------|
Ab-5-5-5-0-3-3-3-3-0-3-3-3-0-------------------5-5-5-0-3-3-3-3-0-3-3-3-0--------------------------|
Db------------------------------------------------------------------------------------------------|

5.BLURRY

Guitar 1 - Acoustic/Clean
Riff A
eb-----------------------------------------------------------------------|
Bb-----------------------------------------------------------------------|
Gb-----------------------------------------------------------------------|
Db-5----5-------5-------5--------5-7------7-------7-------7-------7------|
Ab--3-3—--3-3-3——-3-3-3—--3-3-3-----/5-5—---5-5-5—--5-5-5—--5-5-5--------|
Eb-----------------------------------------------------------------------|

Riff A (continued)
eb------------------------------------------------------------------|
Bb------------------------------------------------------------------|
Gb------------------------------------------------------------------|
Db-9-----9-------9--------9-------9-9----9-------9-------9-------9--|
Ab--/7-7—--7-7-7----7-7-7—--7-7-7—---7-7—--7-7-7—--7-7-7—--7-7-7----|
Eb------------------------------------------------------------------|

Guitar 2 - Acoustic/Clean (played through the whole song)
Riff A
eb|--------------------------------------------------|
Bb|-----------------5*----------------5*-------------|
Gb|--------5*----------5*----5*----------5*----5*----|
Db|-----5*----5*----------------5*----------------5*-|
Ab|--3-----------3--------3--------3--------3--------|
Eb|--------------------------------------------------|

eb|--------------------------------------------------|
Bb|-----------------5*----------------5*-------------|
Gb|--------5*----------5*----5*----------5*----5*----|
Db|-----5*----5*----------------5*----------------5*-|
Ab|--5-----------5--------5--------5--------5--------|
Eb|--------------------------------------------------|

eb|--------------------------------------------5*----|
Bb|-----------------5*----------------5*----------5*-|
Gb|--------5*----------5*----5*----------5*----------|
Db|-----5*----5*----------------5*-------------------|
Ab|--7*----------7*-------7*-------7*-------7*-------|
Eb|--------------------------------------------------|

eb|--------------------------------------------5*----|
Bb|-----------------5*----------------5*----------5*-|
Gb|--------5*----------5*----5*----------5*----------|
Db|-----5*----5*----------------5*-------------------|
Ab|--7*----------7*-------7*-------7*-------7*-------|
Eb|--------------------------------------------------|


Guitar 3 - Distortion(w/ delay effect)played at last 4 measures of main Riff A
Riff A
eb-17-15---—17-19----17-19----(17-15)-|
Bb------------------------------------|
Gb------------------------------------|
Db------------------------------------|
Ab------------------------------------|
Eb------------------------------------|

Guitar 1 - Acoustic/Clean
Riff B - (each chord 12x-15x)
eb----------------|
Bb----------------|
Gb-5--7--9--9-----|
Db-5--7--9--9-----|
Ab-3--5--7--7-----|
Eb----------------|

Guitar 3 - Distortion
Riff B (Starts at 'you can be my...')
eb-----------------------------|
Bb-----------------------------|
Gb---------------------------0-|
Db-0-0--3-2--0--0-0--3-2h3-----|
Ab-----------------------------|
Eb-----------------------------|

Guitar 1 - Acoustic/Clean
Pre-Chorus
Play Riff B

Guitar 3 - Distortion
Pre-Chorus
E--------------------|
B--------------------|
G-4/6/8/10/-11-11-11-|
D-x-x-x-x----x--x--x-|
A-2/4/6/8/---9--9--9-|
E--------------------|

Guitar 1&3 - Distortion
Chorus - (each chord  12x-15x)
eb------------------|
Bb------------------|
Gb-/5-/7-/9-9-------|
Db-/5-/7-/9-9-------|
Ab-/3-/5-/7-7-------|
Eb-/3-/5-/7-7-------|

Guitar 1 - Acoustic/Clean
Interlude
Play Riff B

Guitar 3 - Distortion
Interlude
eb|--------------------------------------------------|
Bb|--------------------------------------------------|
Gb|--10/12--12/--10/12\11---12--12/------------------|
Db|--------------------------------------------------|
Ab|---8/10--10/---8/10\9----10--10/------------------|
Eb|--------------------------------------------------|

Guitar 3 - Distortion(auto-wah effect)
(Guitar 1 plays Riff B in background)
Solo-like Thing
eb|---------------------------------------------------------------------------------|
Bb|-----8-8-----------------8-8-----------------9-9---------------------------------|
Gb|-7-9-----9--9-7--9---7-9-----9--9-7--9---7-9-----9-9--7-9---9-7--9--7--9--7--7---|
Db|---------------------------------------------------------------------------------|
Ab|---------------------------------------------------------------------------------|
Eb|---------------------------------------------------------------------------------|

Guitar 2 - all other guitars ring out
Outro
eb--7*------7*-5*-------------------------------------------------------------|
Bb----7*---------5*--7*-------------------------------------------------------|
Gb------5*---------5*-----------------------a9--------------------------------|
Db--------5*--------------------------------a9--------------------------------|
Ab------------------------------------------a7--------------------------------|
Eb----------------------------------------------------------------------------|

6.SHE HATES ME

Main Riff:
   F       Bb5     G       C5
-|----------------------------------|
-|----------------------------------|
-|---2--------3-------4---------5---|
-|----------------------------------|
-|---------1----1----------3--3---3-|
-|-1---1-----------3----3-----------|

Variation of Main Riff:
-|---------------------------------------|
-|---------------------------------------|
-|---2--------3-------4---------5-5h6p5--|
-|---------------------------------------|
-|---------1----1----------3--3----------|
-|-1---1-----------3----3----------------|

Riff 2:
   F         Bb5       G       C5
-|--------------------------------------|
-|--------------------------------------|
-|-2-2-2-x-x-3-3-3-----4-4-4-x-5--5-5-5-|
-|-3-3-3-x-x-3-3-3-x-x-5-5-5-x-5--5-5-5-|
-|-3-3-3-x-x-1-1-1-x-x-5-5-5-x-3--3-3-3-|
-|-1-1-1-----------x-x-3-3-3------------|

Variation of Riff 2:
-|--------------------------------------------|
-|--------------------------------------------|
-|-2-2-2-x-x-3-3-3-----4-4-4-x-5--5-5-5-5h6p5-|
-|-3-3-3-x-x-3-3-3-x-x-5-5-5-x-5--5-5-5-------|
-|-3-3-3-x-x-1-1-1-x-x-5-5-5-x-3--3-3-3-------|
-|-1-1-1-----------x-x-3-3-3------------------|

Riff 3 (Guitar 2):
-|---------------------------------|
-|---------------------------------|
-|-2-2-2-2-3-3-3-3-4-4-4-4-5-5-5-5-|
-|-3-3-3-3-3-3-3-3-5-5-5-5-5-5-5-5-|
-|-3-3-3-3-1-1-1-1-5-5-5-5-3-3-3-3-|
-|-1-1-1-1---------3-3-3-3---------|
   ............................... pm

Riff 4:
-|--------|
-|--------|
-|-2-2~~~-|
-|-3-3~~~-|
-|-3-3~~~-|
-|-1-1~~~-|

7.BRING ME DOWN

INTRO(x2)
E|-----------------------------------------------------|
B|-----------------------------------------------------|
G|-----------------------------------------------------|
D|------------------------------8-8-8-8-8--7-7-7--6-6--|
A|--6-6-6-6-6--9-9-9-9-9-9-9-9--6-6-6-6-6--5-5-5--4-4--|
E|--4-4-4-4-4--7-7-7-7-7-7-7-7-------------------------|

Guitar 2 (plays during the second time of the intro)
E|-----------------------------------------------------|
B|-----------------------------------------------------|
G|----------------------3-3-3-4-3-1-1-1-1-0------------|
D|--6-6-6-7-6-4-4-4-4-4--------------------------------|
A|-----------------------------------------------------|
E|-----------------------------------------------------|

Verse(x3)Palm mute
E|-----------------------------------------------------|
B|-----------------------------------------------------|
G|-----------------------------------------------------|
D|------------------------------8-8-8-8-8--7-7-7--6-6--|
A|--6-6-6-6-6--9-9-9-9-9-9-9-9--6-6-6-6-6--5-5-5--4-4--|
E|--4-4-4-4-4--7-7-7-7-7-7-7-7-------------------------|

PreChorus
E|-----------------------------------------------------|
B|-----------------------------------------------------|
G|-----------------------------------------------------|
D|------------------------------8--7--6--8--7--6--8----|
A|--6-6-6-6-6--9-9-9-9-9-9-9-9--6--5--4--6--5--4--6----|
E|--4-4-4-4-4--7-7-7-7-7-7-7-7-------------------------|

Chorus(play twice)
                           |(play this first time only)
E|-------------------------|---------------------------|
B|-------------------------|---------------------------|
G|-------------------------|---------------------------|
D|--7-7-7-7-7--6-6-6-6--4-4|---------------------------|
A|--5-5-5-5-5--4-4-4-4--2-2|--6-6-6-6-6--5-5-5-5-5-5---|
E|-------------------------|--4-4-4-4-4--3-3-3-3-3-3---|

Verse x1
E|-----------------------------------------------------|
B|-----------------------------------------------------|
G|-----------------------------------------------------|
D|------------------------------8-8-8-8-8--7-7-7--6-6--|
A|--6-6-6-6-6--9-9-9-9-9-9-9-9--6-6-6-6-6--5-5-5--4-4--|
E|--4-4-4-4-4--7-7-7-7-7-7-7-7-------------------------|

Verse palm mute x3
E|-----------------------------------------------------|
B|-----------------------------------------------------|
G|-----------------------------------------------------|
D|------------------------------8-8-8-8-8--7-7-7--6-6--|
A|--6-6-6-6-6--9-9-9-9-9-9-9-9--6-6-6-6-6--5-5-5--4-4--|
E|--4-4-4-4-4--7-7-7-7-7-7-7-7-------------------------|

PreChorus
E|-----------------------------------------------------|
B|-----------------------------------------------------|
G|-----------------------------------------------------|
D|------------------------------8--7--6--8--7--6--8----|
A|--6-6-6-6-6--9-9-9-9-9-9-9-9--6--5--4--6--5--4--6----|
E|--4-4-4-4-4--7-7-7-7-7-7-7-7-------------------------|

Chorus x4                     (dont play on forth)
E|-------------------------|---------------------------|
B|-------------------------|---------------------------|
G|-------------------------|---------------------------|
D|--7-7-7-7-7--6-6-6-6--4-4|---------------------------|
A|--5-5-5-5-5--4-4-4-4--2-2|--6-6-6-6-6--5-5-5-5-5-5---|
E|-------------------------|--4-4-4-4-4--3-3-3-3-3-3---|

8.NEVER CHANGE

Intro/Verse
This is pretty simple. If you listen to the song you can hear the timing and
the strumming pattern.  Repeat as many times as you see fit.
e---------------------------|
B----3-3-3-3--3-3-3-3-3-3-3-|
G----0-0-0-0--2-2-2-2-2-2-2-|
D----2-2-2-2--0-0-0-0-0-0-0-|
A-2--2-2-2-2----------------|
E---------------------------|

Chorus
This is very James Bond like.  All down strokes, but you can play around with
the strumming if you want.
e------------------------------------|
B------------------------------------|
G-2-2-2-2--2-2-2-2--2-2-2-2--2-2-2-2-|
D-2-2-2-2--3-3-3-3--4-4-4-4--3-3-3-3-|
A------------------------------------|
E------------------------------------|

9.BASEMENT

Eb Tuning:

Eb Ab Db Gb Bb Eb


Intro:

e-0-0-0-0----0-0-0-0-0-0-0-0-0-0-0-0-0-0----0-0-0-0-0-0-0-0-0-0-0-|
b-5-5-5-5----5-5-5-5-5-5-5-5-5-5-5-5-5-5----5-5-5-5-5-5-5-5-5-5-5-|
g-----------------------------------------------------------------|
d-----------------------------------------------------------------|
a-----------------------------------------------------------------|
e-----------------------------------------------------------------|

gtr. 1

e-0-0-0-0----0-0-0-0-0-0-0-0-0-0-0-0-0-0----0-0-0-0-0-0-0-0-0-0-0-|
b-5-5-5-5----5-5-5-5-5-5-5-5-5-5-5-5-5-5----5-5-5-5-5-5-5-5-5-5-5-|
g-----------------------------------------------------------------|
d-----------------------------------------------------------------|
a-----------------------------------------------------------------|
e-----------------------------------------------------------------|

gtr. 2

e-0-0-0-0----0-0-0-0-0-0-0-0-0-0-0-0-0-0----0-0-0-0-0-0-0-0-0-0-0-|
b-0-0-0-0----0-0-0-0-0-0-0-0-0-0-0-0-0-0----0-0-0-0-0-0-0-0-0-0-0-|
g-9-9-9-9----9-9-9-9-9-9-9-9-9-9-9-9-9-9----9-9-9-9-9-9-9-9-9-9-9-|
d-------------------------------------------9-9-9-9-9-9-9-9-9-9-9-|
a-------------------------------------------7-7-7-7-7-7-7-7-7-7-7-|
e-----------------------------------------------------------------|

gtr. 1, 2 & 3

e-0-----------------|
b-0-8-8-8-8-8--8\---|
g-9-7-7-7-7-7--7\---|
d-9-----------------|
a-7-----------------|
e-------------------|

Fig. 1

e-----------------------------------------------------------------|
b-------------------------3-3-3-3-------------------------3-3-3-3-|
g-------------------------2-2-2-2-------------------------2-2-2-2-|
d-------------------------0-0-0-0-------------------------0-0-0-0-|
a-2-2-2---------------------------2-2-2---------------------------|
e-0-0-0-3~~~-3-3-3-3b-3-3---------0-0-0-3~~~-3-3-3-3~-3-3---------|

Verses: w/ flanger

e-----------------------------------------------------------------|
b-----------------------------------------------------------------|
g-------9-------------11---11---11---9--------------7---7---7-----|
d----9-------9------9----9----9----9--------------9---9---9---9---|
a-----------------------------------------------------------------|
e-----------------------------------------------------------------|

e-----------------------------------------------------------------|
b-----------------------------------------------------------------|
g-9---------------11---11---11---9-----11-------9---------7---7/9-|
d---------------9----9----9----9---9-9----9-9-9---9-9-9-9---7-7/9-|
a-----------------------------------------------------------------|
e-----------------------------------------------------------------|

gtr. 1

e-----------------------------------------------------------------|
b-----------------------------------------------------------------|
g---------9-----9-----9---11---12-----------9-----9---9-911-911-9-|
d-9-9-9-9---9-9---9-9---9----9----9-9-9-9-9---9-9---9-9-9-9-9-9-9-|
a-----------------------------------------------------------------|
e-----------------------------------------------------------------|

gtr. 2

e-0-0-0-0-0-0-0-0-0-0-0-0-0-0-0-0-0-0-0-0-0-0-0-0-0-0-0-0-0-0-0-0-|
b-5-5-5-5-5-5-5-5-5-5-5-5-5-5-5-5-5-5-5-5-5-5-5-5-5-5-5-5-5-5-5-5-|
g-----------------------------------------------------------------|
d-----------------------------------------------------------------|
a-----------------------------------------------------------------|
e-----------------------------------------------------------------|

gtr. 1

e-----------------------------------------------------------------|
b-----------------------------------------------------------------|
g---------9-----9-----9---11---12-9-9-9-9-9-9-9-9-9-9-9-9-9-9-9-9-|
d-9-9-9-9---9-9---9-9---9----9----9-9-9-9-9-9-9-9-9-9-9-9-9-9-9-9-|
a-----------------------------------------------------------------|
e-----------------------------------------------------------------|

gtr. 2

e-0-0-0-0-0-0-0-0-0-0-0-0-0-0-0-0-0-0-0-0-0-0-0-0-0-0-0-0-0-0-0-0-|
b-5-5-5-5-5-5-5-5-5-5-5-5-5-5-5-5-5-5-5-5-5-5-5-5-5-5-5-5-5-5-5-5-|
g-----------------------------------------------------------------|
d-----------------------------------------------------------------|
a-----------------------------------------------------------------|
e-----------------------------------------------------------------|

Chorus:

e-----------------------------------------------------------------|
b-0---------------------------------7-----------------------------|
g-1---------------------------------7-----7-7---7---6-6-6-6-5-5---|
d-2---------2-2--5---5-5-5-5-5-5-5--7-----7-7---7---6-6-6-6-5-5---|
a-2---------2-2--5---5-5-5-5-5-5-5--5-----5-5---5---4-4-4-4-3-3---|
e-0---------0-0--3---3-3-3-3-3-3-3------------------------------0-|

e-----------------------------------------------------------------|
b-----------------------------------3-----------------------------|
g-----------------------------------2-----------2-2-2-2-2---------|
d-2---------2-2--5---5-5-5-5-5-5-5--0-----------2-2-2-2-2-5-------|
a-2---------2-2--5---5-5-5-5-5-5-5--------------0-0-0-0-0-5-------|
e-0---------0-0--3---3-3-3-3-3-3-3------------------------3-------|

Bridge:

x4
e-----------------------------------------------------------------|
b-9---9---9-9-9-9---9-9-9-9-9-9-7-7---7---7-7-7-7-5-5-5-5-5-5-5-5-|
g-9---9---9-9-9-9---9-9-9-9-9-9-7-7---7---7-7-7-7-5-5-5-5-5-5-5-5-|
d-9---9---9-9-9-9---9-9-9-9-9-9-7-7---7---7-7-7-7-5-5-5-5-5-5-5-5-|
a-7---7---7-7-7-7---7-7-7-7-7-7-5-5---5---5-5-5-5-3-3-3-3-3-3-3-3-|
e-----------------------------------------------------------------|

e-----------------------------------------------------------------|
b-9---9---9-9-9-9---9-9-9-9-9-9-7-7---7---7-7-7-710101010101010-9-|
g-9---9---9-9-9-9---9-9-9-9-9-9-7-7---7---7-7-7-7-9-9-9-9-9-9-9-9-|
d-9---9---9-9-9-9---9-9-9-9-9-9-7-7---7---7-7-7-7-7-7-7-7-7-7-7-9-|
a-7---7---7-7-7-7---7-7-7-7-7-7-5-5---5---5-5-5-5---------------7-|
e-----------------------------------------------------------------|

Solo:

E5/B                             D5/A               C5/G

e-----------------------------------------------------------------|
b-----------------------------------------------------------------|
g-----7--9---7------7-9---9/11---7----7-9----9-7--7\5-5-5\4-4-----|
d-9-------------9---------------------------------------------5-5-|
a-----------------------------------------------------------------|
e-----------------------------------------------------------------|

E5/B                            D5/A             A5/E

e-----------------------------------------------------------------|
b-----------------------------------------------------------------|
g-----7--9---7------7-9---9/11---7---7-9---9-7---1414141414141414-|
d-9---------------------------------------------------------------|
a-----------------------------------------------------------------|
e-----------------------------------------------------------------|

hold bend
e-----------------------------------------------------------------|
b-12--------------------------------------------------------------|
g-14b~~~~~~~~~~~~~~~~~~~~~~~~~~~~~~~~~~~~~~~~~~~~~~---------------|
d-----------------------------------------------------------------|
a-----------------------------------------------------------------|
e-----------------------------------------------------------------|

10.SAID

Intro
e|-----------------------------------------------------------|
B|--3---4----------------------------------------------------|
G|--2---3----------------------------------------------------|
D|-----------------------------------------------------------|
A|-----------------------------------------------------------|
D|-----------------------------------------------------------|

Listen to the Song for the actual Strumming


Verse

e|-----------------------------------------------------------|
B|--3---4/6--------------------------------------------------|
G|--2---3/5--------------------------------------------------|
D|-----------------------------------------------------------|
A|-----------------------------------------------------------|
D|-----------------------------------------------------------|

Guitar 2 (play in the background)
e|-----------------------------------------------------------|
B|----1--------3---------------------------------------------|
G|--2---2----2---2-------------------------------------------|
D|-----------------------------------------------------------|
A|-----------------------------------------------------------|
D|-----------------------------------------------------------|
Again Listen to song for Actual strumming


Chorus

e|-----------------------------------------------------------|
B|----------------12^12^12^12^12^----------------------------|
G|-----------------------------------------------------------|
D|--0-3-0-3-0-6-----------------------3-3-03-1-1-1-----------|
A|--0-3-0-3-0-6-----------------------3-3-03-1-1-1-----------|
D|--0-3-0-3-0-6-----------------------3-3-03-1-1-1-----------|


Bridge
e|-----------------------------------------------------------|
B|-----------------------------------------------------------|
G|-----------------------------------------------------------|
D|---3--4--3--1----------------------------------------------|
A|---3--4--3--1----------------------------------------------|
D|---3--4--3--1----------------------------------------------|

11.P*** IT ALL AWAY

Acoustic gtr 1:

Bb Bb Bb Bb Eb Eb

gtr. 2

Eb:
Eb Ab Db Gb Bb Eb

Intro: let ring

e-----------------------------------------------------------------|
b-----------------------------------------------------------------|
g-----------------------------------------------------------------|
d---2-------------------------------------------------------------|
a---2-------------------------------------------------------------|
e---0-------------------------------------------------------------|

E5 let ring

gtr. 1

e-7---7--7-7---7-7---7-7---7-7-7-7-7-7---7--7-7---7-7---7-7-7-7-7-|
e-0---0--0-0---0-0---0-0---0-0-0-0-0-0---0--0-0---0-0---0-0-0-0-0-|
b-7---7--7-7---7-7---7-7---7-7-7-7-7-7---7--7-7---7-7---7-7-7-7-7-|
b-0---0--0-0---0-0---0-0---0-0-0-0-0-0---0--0-0---0-0---0-0-0-0-0-|
b-0---0--0-0---0-0---0-0---0-0-0-0-0-0---0--0-0---0-0---0-0-0-0-0-|
b-5----------------------------------5----------------------------|

e-------------------------------------------|
e19----17---16h17p16----14h15p14-12--12-----|
b-0---0-0----------0-----------0--0---0-----|
b-0---0-0----------0-----------0--0---0-----|
b-0---0-------------------------------------|   x2
b-------------------------------------------|

Fig. 1

e---------------------------------------------------|
e-------0--0--0--0--------0--0--0--0------0----0----|
b-------0--0--0--0--------0--0--0--0------0----0----|
b-------0--0--0--0--------0--0--0--0------0----0----|
b-------0--0--0--0--------0--0--0--0------0----0----|
b-10---10-10-10-10---11--11-11-11-11--12-12---12----|

e-7---7-7-7--7-7--7-7-6-6-6-6-6-6-7---7-7-7--7-7--7-7-6-6-6-6-6-6-|
e-0---0-0-0--0-0--0-0-0-0-0-0-0-0-0---0-0-0--0-0--0-0-0-0-0-0-0-0-|
b-0---0-0-0--0-0--0-0-0-0-0-0-0-0-0---0-0-0--0-0--0-0-0-0-0-0-0-0-|
b-0---0-0-0--0-0--0-0-0-0-0-0-0-0-0---0-0-0--0-0--0-0-0-0-0-0-0-0-|
b-0---0-0-0--0-0--0-0-0-0-0-0-0-0-0---0-0-0--0-0--0-0-0-0-0-0-0-0-|
b-5---5-5-5--5-5--5-5-5-5-5-5-5-5-5---5-5-5--5-5--5-5-5-5-5-5-5-5-|

Verses/Chorus: Fig. 1

Interlude:

gtr. 2

e-0------------0-0----------0---0-0--0---0-0--0-3--3-3-3-3-3-3-3-3-|
b-0------------0-0----------0---0-0--2---2-2--2-3--3-3-3-3-3-3-3-3-|
g-1------------1-1----------1---1-1--2---2-2--2-0--0-0-0-0-0-0-0-0-|
d-2---x-x--x-x-2-2--x-x-x-x-2---2-2--2---2-2--2-0--0-0-0-0-0-0-0-0-|
a-2---x-x--x-x-2-2--x-x-x-x-2---2-2--0---0-0--0-2--2-2-2-2-2-2-2-2-|
e-0---x-x--x-x-0-0--x-x-x-x-0---0-0-------------3--3-3-3-3-3-3-3-3-|

gtr. 3

e-----------------------------------------------------------------|
b-----------------------------------------------------------------|
g-9/11-11-11---x11/13-13-13-13--9--9------------------------------|
d-x--x--x--x---x-x--x--x--x--x--x--x------------------------------|
a-7/-9--9--9---x-9/11-11-11-11--7--7------------------------------|
e------------0---------------0------------------------------------|

gtr. 2

e-0------------0-0----------0---0-0--0---0-0--0-3--3-3-3-3-3-3-3-3-|
b-0------------0-0----------0---0-0--2---2-2--2-3--3-3-3-3-3-3-3-3-|
g-1------------1-1----------1---1-1--2---2-2--2-0--0-0-0-0-0-0-0-0-|
d-2---x-x--x-x-2-2--x-x-x-x-2---2-2--2---2-2--2-0--0-0-0-0-0-0-0-0-|
a-2---x-x--x-x-2-2--x-x-x-x-2---2-2--0---0-0--0-2--2-2-2-2-2-2-2-2-|
e-0---x-x--x-x-0-0--x-x-x-x-0---0-0-------------3--3-3-3-3-3-3-3-3-|

gtr. 3
e-----------------------------------------------------------------|
b-----------------------------------------------------------------|
g-9/1111111--11/14-14-14-14-13-13-13------------------------------|
d-x-x-x-x-x---x--x--x--x--x--x--x--x------------------------------|
a-7/9-9-9-9---9/12-12-12-12-11-11-11------------------------------|
e-----------0-----------------------------------------------------|

Outro: x3

e-5--5--5-5--5--5-5-5-5---5-5-5-5-5---5-5-5-5-5---5-5-5--5-5---5--|
e-0--0--0-0--0--0-0-0-0---0-0-0-0-0---0-0-0-0-0---0-0-0--0-0---0--|
b-0--0--0-0--0--0-0-0-0---0-0-0-0-0---0-0-0-0-0---0-0-0--0-0---0--|
b-0--0--0-0--0--0-0-0-0---0-0-0-0-0---0-0-0-0-0---0-0-0--0-0---0--|
b-0--0--0-0--0--0-0-0-0---0-0-0-0-0---0-0-0-0-0---0-0-0--0-0---0--|
b-0--0--0-0--0--0-0-0-0---0-0-0-0-0---0-0-0-0-0---0-0-0--0-0---0--|

e-5-5-5-5--5-5-5-5--5-5-5-5--0------------------------------------|
e-5-5-5-5--5-5-5-5--5-5-5-5--0------------------------------------|
b-5-5-5-5--5-5-5-5--5-5-5-5--0------------------------------------|
b-0-0-0-0--0-0-0-0--0-0-0-0--0------------------------------------|
b-0-0-0-0--0-0-0-0--0-0-0-0--0------------------------------------|
b-0-0-0-0--0-0-0-0--0-0-0-0--x------------------------------------|
3 comments total.
0 reply
metallica_80 wrote on January 20 2005, 12:00 am

this tab is wrong. ur supposed to put natural harmonics in this one bud.

-1 reply
joeadzhiyev(: wrote on June 10 2007, 07:21 pm

dude you stole this from me to!!stop stealing my tabs you ultimate guitar poser!!!!!!!. god, andrew your so gay dude. get your own life and learn to live it. i can see why you would steal my tab seeing as you suck at guitar and all. but come on dude theres more to life then stealing my work and taking all the credit.me and my band(yes i said band cuz i actully have friends to play guitar with)are going to come up with a song singing about how gay you are. are you going to try and tab that too?but oh yeah, thats right,you suck. i forgot. but i am sure there will be tons of people tabbing that song and then you can copy and past them on and take credit for it as well.haha

stop stealing from mxtabs!.............fag.

0 reply
rockfanatik00 wrote on September 6 2007, 06:24 pm

my thoughts exactly joeadzhiyev(:

I want to post or [tab]
guest
You may want to rate the tab now too:
select rating
Please do not post tabs as comments. Select "correction" instead!