Oops, an error
Loading. Please wait.

Epic Myth Tab

425 views 9 this week
1 commentread comment
1 2 3 4 5
excellent!
x 1
Autoscroll
+/-
esc
set tempo
stop
Contributor
Difficulty
Tuning
intermediate
D A D G B E
Hey! There's an official Ultimate Guitar app which is ideal
for learning songs when you're away from computer. Get the app
WARNING: You are trying to view
                                    content from Ultimate-Guitar.com
                                    in an unauthorized application,
                                    which is prohibited.

                                    Please use an official Ultimate
                                    Guitar Tabs application for iPhone,
                                    iPad or Android to access legitimate
                                    chords, guitar, bass, and drum tabs
                                    from Ultimate-Guitar.com database.

                                    Type "ultimate guitar tabs" in Apple
                                    App Store's or Android Market's
                                    search to find the application.
Tuning: Drop D - D,A,D,G,B,e

Intro and Verse 1:
e|--------------------------------------------------------------------------|
B|--------------------------------------------------------------------------|
G|--------------------------------------------------------------------------|
D|--------------------------------------------------------------------------|
A|----------------------------8---6----------------------------8---6--------|
D|-5-5-5-5-5-5-5-5-5-5-5-0/10---8---5-5-5-5-5-5-5-5-5-5-5-0/10---8----------|

e|--------------------------------------------------------------------------|
B|--------------------------------------------------------------------------|
G|--------------------------------------------------------------------------|
D|--------------------------------------------------------------------------|
A|---------------------------------------------------------------8---6------|
D|-3-3-3-3-3-3-3-0-10-10-10-0-8-8-8-0-5-5-5-5-5-5-5-5-5-5-5-0/10---8--------|

e|--------------------------------------------------------------------------|
B|--------------------------------------------------------------------------|
G|--------------------------------------------------------------------------|
D|--------------------------------------------------------------------------|
A|----------------------------8---6-----------------------------------------|
D|-5-5-5-5-5-5-5-5-5-5-5-0/10---8---3-3-3-3-3-3-3-0-10-10-10-0-8-8-8-0------|

e|--------------------------------------------------------------------------|
B|--------------------------------------------------------------------------|
G|--------------------------------------------------------------------------|
D|--------------------------------------------------------------------------|
A|----------------------------8---6----------------------------8---6--------|
D|-5-5-5-5-5-5-5-5-5-5-5-0/10---8---5-5-5-5-5-5-5-5-5-5-5-0/10---8----------|

e|--------------------------------------------------------------------------|
B|--------------------------------------------------------------------------|
G|--------------------------------------------------------------------------|
D|------------------------------------5-5-5-5-5-5-5-5-5-5-5-5-5-5-5-5-------|
A|------------------------------------5-5-5-5-5-5-5-5-5-5-5-5-5-5-5-5-------|
D|-3-3-3-3-3-3-3-0-10-10-10-0-8-8-8-0-5-5-5-5-5-5-5-5-5-5-5-5-5-5-5-5-------|

Pre-chorus:
e|--------------------------------------------------------------------------|
B|--------------------------------------------------------------------------|
G|---4---4---4---4h6-------------4---4---4--6b7r6---------------------------|
D|--5---5---5---5-----3-3-3-5--5---5---5------------6-6-6-5-----------------|
A|--------------------3-3-3-5-----------------------6-6-6-5-----------------|
D|--------------------3-3-3-5-----------------------6-6-6-5-----------------|

e|--------------------------------------------------------------------------|
B|--------------------------------------------------------------------------|
G|---4---4---4---4h6-------------4---4---4--6b7r6------------5*-------------|
D|--5---5---5---5-----3-3-3-5--5---5---5------------3-3-3-5--5*-(ring out)--|
A|--------------------3-3-3-5-----------------------3-3-3-5--5*-------------|
D|--------------------3-3-3-5-----------------------3-3-3-5-----------------|

e|--------------------------------------------------------------------------|
B|--------------------------------------------------------------------------|
G|--------------------------------------------------------------------------|
D|--------------------------------------------------------------------------|
A|------8---6---------------------------------------------------------------|
D|--/10---8-----------------------------------------------------------------|

Verse 2:
e|--------------------------------------------------------------------------|
B|--------------------------------------------------------------------------|
G|--------------------------------------------------------------------------|
D|--------------------------------------------------------------------------|
A|----------------------------8---6-----------------------------------------|
D|-5-5-5-5-5-5-5-5-5-5-5-0/10---8---3-3-3-3-3-3-3-0-10-10-10-0-8-8-8-0------|

e|--------------------------------------------------------------------------|
B|--------------------------------------------------------------------------|
G|--------------------------------------------------------------------------|
D|--------------------------------------------------------------------------|
A|----------------------------8---6----------------------------8---6--------|
D|-5-5-5-5-5-5-5-5-5-5-5-0/10---8---5-5-5-5-5-5-5-5-5-5-5-0/10---8----------|

e|--------------------------------------------------------------------------|
B|--------------------------------------------------------------------------|
G|--------------------------------------------------------------------------|
D|------------------------------------5-5-5-5-5-5-5-5-5-5-5-5-5-5-5-5-------|
A|------------------------------------5-5-5-5-5-5-5-5-5-5-5-5-5-5-5-5-------|
D|-3-3-3-3-3-3-3-0-10-10-10-0-8-8-8-0-5-5-5-5-5-5-5-5-5-5-5-5-5-5-5-5-------|

Pre-chorus 2:
e|--------------------------------------------------------------------------|
B|--------------------------------------------------------------------------|
G|---4---4---4---4h6-------------4---4---4--6b7r6---------------------------|
D|--5---5---5---5-----3-3-3-5--5---5---5------------6-6-6-5-----------------|
A|--------------------3-3-3-5-----------------------6-6-6-5-----------------|
D|--------------------3-3-3-5-----------------------6-6-6-5-----------------|

e|--------------------------------------------------------------------------|
B|--------------------------------------------------------------------------|
G|---4---4---4---4h6-------------4---4---4--6b7r6---------------------------|
D|--5---5---5---5-----3-3-3-5--5---5---5------------3-3-3-0-----------------|
A|--------------------3-3-3-5-----------------------3-3-3-0-----------------|
D|--------------------3-3-3-5-----------------------3-3-3-0-----------------|

Main Chorus:
e|--------------------------------------------------------------------------|
B|--------------------------------------------------------------------------|
G|--------------------------------------------------------------------------|
D|-5-5-5/12-12-10-10-0-7-7-7-8-8-10-10-0-5-5-5/12-12-10-10-0-7-7-7-8-8-10-10|
A|-5-5-5/12-12-10-10-0-7-7-7-8-8-10-10-0-5-5-5/12-12-10-10-0-7-7-7-8-8-10-10|
D|-5-5-5/12-12-10-10-0-7-7-7-8-8-10-10-0-5-5-5/12-12-10-10-0-7-7-7-8-8-10-10|

e|--------------------------------------------------------------------------|
B|--------------------------------------------------------------------------|
G|--------------------------------------------------------------------------|
D|-5-5-5/12-12-10-10-0-7-7-7-8-8-10-10-0-5-5-5/12-12-10-10-0-7-7-7-8-8-10-10|
A|-5-5-5/12-12-10-10-0-7-7-7-8-8-10-10-0-5-5-5/12-12-10-10-0-7-7-7-8-8-10-10|
D|-5-5-5/12-12-10-10-0-7-7-7-8-8-10-10-0-5-5-5/12-12-10-10-0-7-7-7-8-8-10-10|

Middle Eight:
e|--------------------------------------------------------------------------|
B|--------------------------------------------------------------------------|
G|--------------------------------------------------------------------------|
D|-----------------------------8------------------------------8-------------|
A|---------------------------5------------------------------5---------------|
D|-5-5-5-5-5-5-5-5-5-5-5-0-8-----5--5-5-5-5-5-5-5-5-5-5-0-8-----3--3-3-3-3-3|

e|--------------------------------------------------------------------------|
B|--------------------------------------------------------------------------|
G|--------------------------------------------------------------------------|
D|----------------------------------------------------8---5--5-5-5-5-5-5-5-5|
A|--------------------------------------------------5-----5--5-5-5-5-5-5-5-5|
D|-3-0-10-10-10-0-8-8-8-0-5-5-5-5-5-5-5-5-5-5-5-0-8-------5--5-5-5-5-5-5-5-5|

e|--------------------------------------------------------------------------|
B|--------------------------------------------------------------------------|
G|--------------------------------------------------------------------------|
D|-5-5-0-----8--3--3-3-3-3-3-3-0-10-10-10-0-8-8-8-0-5-5-5-5-5-5-5-5-5-5-5-0-|
A|-5-5-0---5----3--3-3-3-3-3-3-0-10-10-10-0-8-8-8-0-5-5-5-5-5-5-5-5-5-5-5-0-|
D|-5-5-0-8------3--3-3-3-3-3-3-0-10-10-10-0-8-8-8-0-5-5-5-5-5-5-5-5-5-5-5-0-|

e|--------------------------------------------------------------------------|
B|--------------------------------------------------------------------------|
G|--------------------------------------------------------------------------|
D|-----8-------------------------------8------------------------------------|
A|---5-------------------------------5--------------------------------------|
D|-8------5-5--5-5-5-5--5-5-5-5--0-8-----3-3--3-3-3-3--0-10-10-10-0-8-8-8-0-|

e|--------------------------------------------------------------------------|
B|--------------------------------------------------------------------------|
G|--------------------------------------------------------------------------|
D|-55555555555555555555555555555555-----------------------------------------|
A|-55555555555555555555555555555555-----------------------------------------|
D|-55555555555555555555555555555555-----------------------------------------|

Main Chorus 2:
e|--------------------------------------------------------------------------|
B|--------------------------------------------------------------------------|
G|--------------------------------------------------------------------------|
D|-5-5-5/12-12-10-10-0-7-7-7-8-8-10-10-0-5-5-5/12-12-10-10-0-7-7-7-8-8-10-10|
A|-5-5-5/12-12-10-10-0-7-7-7-8-8-10-10-0-5-5-5/12-12-10-10-0-7-7-7-8-8-10-10|
D|-5-5-5/12-12-10-10-0-7-7-7-8-8-10-10-0-5-5-5/12-12-10-10-0-7-7-7-8-8-10-10|

e|--------------------------------------------------------------------------|
B|--------------------------------------------------------------------------|
G|--------------------------------------------------------------------------|
D|-5-5-5/12-12-10-10-0-7-7-7-8-8-10-10-0-5-5-5/12-12-10-10-0-7-7-7-8-8-10-10|
A|-5-5-5/12-12-10-10-0-7-7-7-8-8-10-10-0-5-5-5/12-12-10-10-0-7-7-7-8-8-10-10|
D|-5-5-5/12-12-10-10-0-7-7-7-8-8-10-10-0-5-5-5/12-12-10-10-0-7-7-7-8-8-10-10|

e|--------------------------------------------------------------------------|
B|--------------------------------------------------------------------------|
G|--------------------------------------------------------------------------|
D|-5-5-5/12-12-10-10-0-7-7-7-8-8-10-10-0-5-5-5/12-12-10-10-0-7-7-7-8-8-10-10|
A|-5-5-5/12-12-10-10-0-7-7-7-8-8-10-10-0-5-5-5/12-12-10-10-0-7-7-7-8-8-10-10|
D|-5-5-5/12-12-10-10-0-7-7-7-8-8-10-10-0-5-5-5/12-12-10-10-0-7-7-7-8-8-10-10|

e|--------------------------------------------------------------------------|
B|--------------------------------------------------------------------------|
G|--------------------------------------------------------------------------|
D|-5-5-5/12-12-10-10-0-7-7-7-8-8-10-10-0-5-5-5/12-12-10-10-0-7-7-7-8-8-10-10|
A|-5-5-5/12-12-10-10-0-7-7-7-8-8-10-10-0-5-5-5/12-12-10-10-0-7-7-7-8-8-10-10|
D|-5-5-5/12-12-10-10-0-7-7-7-8-8-10-10-0-5-5-5/12-12-10-10-0-7-7-7-8-8-10-10|

e|--------------------------------------------------------------------------|
B|--------------------------------------------------------------------------|
G|--------------------------------------------------------------------------|
D|-5-5-5/12-12-13-13-0-7-7-7-8-8-10-10-0-5-5-5/12-12-13-13-0-7-7-7-8-8-10-10|
A|-5-5-5/12-12-13-13-0-7-7-7-8-8-10-10-0-5-5-5/12-12-13-13-0-7-7-7-8-8-10-10|
D|-5-5-5/12-12-13-13-0-7-7-7-8-8-10-10-0-5-5-5/12-12-13-13-0-7-7-7-8-8-10-10|

e|--------------------------------------------------------------------------|
B|--------------------------------------------------------------------------|
G|--------------------------------------------------------------------------|
D|-5-5-5/12-12-13-13-0-7-7-7-8-8-10-10-0-5-5-5/12-12-13-13-0-7-7-7-8-8-10-10|
A|-5-5-5/12-12-13-13-0-7-7-7-8-8-10-10-0-5-5-5/12-12-13-13-0-7-7-7-8-8-10-10|
D|-5-5-5/12-12-13-13-0-7-7-7-8-8-10-10-0-5-5-5/12-12-13-13-0-7-7-7-8-8-10-10|

Outro/Solo:
e|--------------------------------------------------------------------------|
B|--------------------------------------------------------------------------|
G|--------------------------------------------------------------------------|
D|-------8--------------8--------------8/11-8-5-------8/15-12-----------8---|
A|-----5--------------5--------------5--------------5---------13------5-----|
D|-0-8-----5p0h5p0--8-----5p0h5p0--8------------0-8---------------0-8-------|

e|--------------------------------------------------------------------------|
B|--------------------------------------------------------------------------|
G|--------------------------------------------------------------------------|
D|--------------8--------------8/11-8-5p0---5-8-----------------------------|
A|------------5--------------5------------7-----6-5-------------------------|
D|-5p0h5p0--8-----5p0h5p0--8------------------------------------------------|

e|--------------------------------------------------------------------------|
B|-------------5b6r5-------------------5b6r5--------------------------------|
G|-5b6r5-------------3-3----5b6r5-------------3-3---------------------------|
D|-------5-5----------------------5-5---------------------------------------|
A|--------------------------------------------------------------------------|
D|--------------------------------------------------------------------------|

e|--------------------------------------------------------------------------|
B|-8-------6------8-------10------8-------10------11------10------11--------|
G|-10b12---8b10---10b12---12b14---10b12---12b14---13b15---12b14---13b15-----|
D|--------------------------------------------------------------------------|
A|--------------------------------------------------------------------------|
D|--------------------------------------------------------------------------|

e|--------------------------------------------------------------------------|
B|-13------15---------------------------------------------------------------|
G|-15b17---17b19------------------------------------------------------------|
D|------------------0-8-8-0-5\----------------------------------------------|
A|------------------0-8-8-0-5\----------------------------------------------|
D|------------------0-8-8-0-5\----------------------------------------------|

Key:
/ - Slide up.
\ - Slide down.
* - Harmonics.
b - Bend up.
r - Release bend.
p - Pull off.
h - Hammer on.

Hope you enjoy the tab! I have a cover of this on Youtube if you have any free time to 
have a look! Thank you!
http://www.youtube.com/watch?v=WgaaO-PMNUE
comments
We did not receive enough feedback on this tab! Please rate:
print report bad tab
1 2 3 4 5
1 comment total.
0 reply
Spuddie93 wrote on December 23 2012, 09:18 am

Sorry, a mistake on my behalf, the chorus riff is:

e|---------------------------------------------------------------------|
B|---------------------------------------------------------------------|
G|---------------------------------------------------------------------|
D|---------------------------------------------------------------------|
A|---------------------------------------------------------------------|
D|-5-5-5/12-12-11-11-0-7-7-7-8-8-10-10-0-------------------------------|

and not (as I have written it in the main tab):

e|---------------------------------------------------------------------|
B|---------------------------------------------------------------------|
G|---------------------------------------------------------------------|
D|---------------------------------------------------------------------|
A|---------------------------------------------------------------------|
E|-5-5-5/12-12-12-10-10-0-7-7-7-8-8-10-10-0----------------------------|

Thank you!

I want to post or [tab]
guest
You may want to rate the tab now too:
select rating
Please do not post tabs as comments. Select "correction" instead!