Oops, an error
Loading. Please wait.

Miracle Tab

ver1
ver1

Album

Whole song

More versions @911Tabs.com
8,981 views 18 this week
2 commentsread comments
1 2 3 4 5
excellent!
x 4
Autoscroll
+/-
esc
set tempo
stop
Contributor
Hey! There's an official Ultimate Guitar app which is ideal
for learning songs when you're away from computer. Get the app
WARNING: You are trying to view
                                    content from Ultimate-Guitar.com
                                    in an unauthorized application,
                                    which is prohibited.

                                    Please use an official Ultimate
                                    Guitar Tabs application for iPhone,
                                    iPad or Android to access legitimate
                                    chords, guitar, bass, and drum tabs
                                    from Ultimate-Guitar.com database.

                                    Type "ultimate guitar tabs" in Apple
                                    App Store's or Android Market's
                                    search to find the application.
Queen: The Miracle /album/
Guitar solos


party
|-10p9p7-9p7----7---------7------|-------------------------------------|
|------------10---10p7-10---10p7-|-------------------------------------|
|--------------------------------|--------11-12r11p9-11p9----9----9----|
|--------------------------------|-----13-----------------11---11---11-|
|--------------------------------|-/14---------------------------------|
|--------------------------------|-------------------------------------|

miracle
|-17-16-17---b19vvr17p16-14-16--b17vvr16p14------------|
|-------------------------------------------17---------|
|----------------------------------------------16b18---|
|------------------------------------------------------|
|------------------------------------------------------|
|------------------------------------------------------|

|----------------------14-16--b17vv_r16-14-16--17--19--19b20vv---|
|-------------17-14-17-------------------------------------------|
|-16-16-16b18----------------------------------------------------|
|----------------------------------------------------------------|
|----------------------------------------------------------------|
|----------------------------------------------------------------|

-19--17--15--17b19___r17p15-17-------------15--17--17b19-----21b22---b22--21--|
-------------------------------17__\---15-------------------------------------|
------------------------------------------------------------------------------|
------------------------------------------------------------------------------|
------------------------------------------------------------------------------|
------------------------------------------------------------------------------|
..
|-------------------------------------------------|
|-12b14vvv-----------12b14___t15___p14r12p9-12v---|
|-------------------------------------------------|
|-----------x-x-8-x-------------------------------|
|-----------x-x-x-10------------------------------|
|-----------x-x-x-x-------------------------------|

|------------------------------------------|
|-9----------------------------------------|
|-x-9-11--11b_13_t14v---11b__13_r11p911p9--|
|------------------------------------------|
|------------------------------------------|
|------------------------------------------|

-------------------------------------------------------------------------------|
12b__14-t14p12t14p11t14p10t14p9------------------------------------------------|
-------------------------------t14p12t14p11t14p9-------------------------------|
------------------------------------------------t14p11t14p9t14-----------------|
--------------------------------------------------------------h11t14p10t14p9-7-|
-------------------------------------------------------------------------------|

|-x--------x---------x---------x-x---------|
|-16b18----x-18b19---x-19b21---x-x-20b21---|
|-x--------x-----------x-------x-x---------|
|------------------------------------------|
|------------------------------------------|
|------------------------------------------|

|----------------------|
|18__\12b14t15p14r12---|
|----------------------|
|----------------------|
|----------------------|
|----------------------|

|----------------------------------------------------------------------------|
|-12b14t15p14r12p9-12b14_t15__pr12p9-12b14t17__pr12p9h12b14_t18b_b19r18rp12v-|
|----------------------------------------------------------------------------|
|----------------------------------------------------------------------------|
|----------------------------------------------------------------------------|
|----------------------------------------------------------------------------|

|-------------------------------------|
|-9-----------------------------------|
|---12-11-9---------------------------|
|-----------11-9----------------------|
|-----------------11-10-9-7---7-------|
|---------------------------9---9-7v--|

i want it all
|----------7----7---------------10p7h10p7--------------|
|-10b12v-----10---10-7-10p7h10p7---------10p7-10b12v---|
|------------------------------------------------------|
|------------------------------------------------------|
|------------------------------------------------------|
|------------------------------------------------------|

|---------------------------|
|-10-7----------------------|
|------9b10__r9--7-9-7h9p7--|
|---------------------------|
|---------------------------|
|---------------------------|

-17b19_r--17---14-----------------------17-----------------------------------|
------------------17b19---17v-----17b19-----19r17p15-17b19__r17p15-----------|
-------------------------------------------------------------------16---14vv-|
-----------------------------------------------------------------------------|
-----------------------------------------------------------------------------|
-----------------------------------------------------------------------------|
...

|--------------------7-7-----------------------------------------|
|-9b_10-------7-10p7-----10b12--10b12___r10p7--------------------|
|-9b_11---b11---------------------------------10r9p7-6-7---9-----|
|------------------------------------------------------------7---|
|----------------------------------------------------------------|
|----------------------------------------------------------------|

|----------____-7----------------------------|
|-10b__12--7h10---7--------------------------|
|-------------------10-9-7------------7-___--|
|--------------------------9-7-----9----9p7--|
|--------------------------------------------|
|--------------------------------------------|

|--------------------10b12---10---7----7------7----------------------|
|-----------------------------------10---7h10---10b12__rbrp8---------|
|-----7------------------------------------------------------10p9p7\-|
|-9-------9p7-9----7-------------------------------------------------|
|--------------------------------------------------------------------|
|--------------------------------------------------------------------|

|------------17p14--17p14--------------|
|--------15-------14-----1417b19--17v--|
/14--16----16--------------------------|
|--------------------------------------|
|--------------------------------------|
|--------------------------------------|

|----------------------|
|-17b19____r17p15------|
|----------------16vv--|
|----------------------|
|----------------------|
|----------------------|

..
|-----------------------------------------------------------|
|...15p14-------15p14-------17b19vv-------------------------|
|---------16p14-------16p14---------------------------------|
|--------------------------------------16__r14p12-----------|
|-------------------------------------------------14---14---|
|-----------------------------------------------------------|

|-----------------------------------------------------------------|
|-----------------------------------------------------------------|
|----------------------------------------________-----------------|
|----------------------------------12-14b16r14p12-14p12-----------|
|----------------------12----12h14----------------------14p12-14--|
|-14-12p10-12p10-12/14----14--------------------------------------|

|---------------------------------------------------------------------|
|-15b17---15b17---r15v----7-6-5-------3p2-----3p2-----3p2-----3p2-----|
|-------------------------------7-4-2-----4p2-----4p2-----4p2-----4p2-|
|---------------------------------------------------------------------|
|---------------------------------------------------------------------|
|---------------------------------------------------------------------|

|---------------------------------------------------------|
|-5b7vvvr5--3-5p3-2-3p2-----------------------------------|
|-----------------------4-x-4p2---2-----------------------|
|-------------------------------4---4p2p0-2p0-2p0---------|
|-------------------------------------------------2p0-2---|
|---------------------------------------------------------|

|------------------------------------------------------------|
|-15____-15vv17----17b19__r17p15--------------17b19--17b19---|
|--------------------------------16--17rbr16-----------------|
|------------------------------------------------------------|
|------------------------------------------------------------|
|------------------------------------------------------------|

|-----------------------------|
|-17b19--17b19__r17p15--------|
|----------------------16_v---|
|-----------------------------|
|-----------------------------|
|-----------------------------|

|----------------10---10...-10/12---12---12------|
|-13b15-13-13b15---b15-----------b17--b17--b17---|
|------------------------------------------------|
|------------------------------------------------|
|------------------------------------------------|
|------------------------------------------------|

|-------------------------------------------------|
|-19r17p15-14-15p14-------------------------------|
|-------------------16p14-16p14----14-------------|
|-------------------------------16----16\14-12----|
|----------------------------------------------14-|
|-------------------------------------------------|

...
|---------------------8-7--5---5---------------------------------|
|-------5h8p5-8b10-----------8-----------------------------------|
|-7b9----------------------------7b9---7---5-7p5-4---------------|
|--------------------------------------------------7-5---3---5---|
|----------------------------------------------------------------|
|----------------------------------------------------------------|

|-17b19------17---14------------------------------------------|
|----------------------18r_17_p15--17--15--14--15p14h15p14----|
|----------------------------------------------------------16-|
|-------------------------------------------------------------|
|-------------------------------------------------------------|
|-------------------------------------------------------------|

|-----------------------------------------------|
|-14--------------------------------------------|
|----16-14h16p14----14--------------------------|
|----------------16----16-15-14-13--14--12___\--|
|---------------------------------14--14--------|
|-----------------------------------------------|

invisible man
|----------------------------------------------------------------------------|
|----------------------------------------------------------------------------|
|-15b16-b17-b17-16-b19-17b19-17-b19-17-b19r-17-17b19-17-b19-17-b19-17-b19-17-|
|----------------------------------------------------------------------------|
|----------------------------------------------------------------------------|
|----------------------------------------------------------------------------|

|---------------------------------------------------------------------|
|-16-2020191817--------20--1817--------20x1817--------20191817--------|
|--------------20191817--(0)---20191817-------20191720--------20191817|
|---------------------------------------------------------------------|
|---------------------------------------------------------------------|
|---------------------------------------------------------------------|

|----------------------20191817--------------------|
|20191917----------2019--------20191817191817------|
|--------2019181717--------------------------201917|
|--------------------------------------------------|
|--------------------------------------------------|
|--------------------------------------------------|

|--------------------------------------------|
|--------------------------------------20----|
|------------------------17___\/19b__21--1720|
|-2019171917--1717___\/20--------------------|
|-----------18-------------------------------|
|--------------------------------------------|

|----------------------------____----------------------|
|171817--172017--171817--17201817--171817--172017--1720|
|------20------20------20--------20------20------20----|
|------------------------------------------------------|
|------------------------------------------------------|
|------------------------------------------------------|

|------------------------------20---(1818)20191817-----------------|
|-20b22vv--20191817-------------------------------20191817---------|
|------------------2019171917vv---17----------------------20191817-|
|------------------------------------------------------------------|
|------------------------------------------------------------------|
|------------------------------------------------------------------|

|-20191817-----------------20191817..|
|---------20191817-------------------|
|-----------------20191817-----------|
|------------------------------------|
|------------------------------------|
|------------------------------------|

breaktrouh
|------10...-----12...-----14...-----15...-----17...-----19...-|
|-13b15--...15b17--...17b19--...18b20--...20b22--...22b24--...-|
|--------------------------------------------------------------|
|--------------------------------------------------------------|
|--------------------------------------------------------------|
|--------------------------------------------------------------|

|----------------------------151718_p17p1517v---|
|-----------------18151718----------------------|
|------------1416-------------------------------|
|--------1517-----------------------------------|
|-15-1818---------------------------------------|
|-----------------------------------------------|

|---------------------------_____17-18-20-b22v-----------------|
|---------------------15171820(20)---------------22r__20p18vv--|
|---------------141517-----------------------------------------|
|---------141517-----------------------------------------------|
|-15131517-----------------------------------------------------|
|--------------------------------------------------------------|

|-----------------------------------------------|
|-22r__20p18--20b22--20b22--20b22--20b22--20vv..|
|-----------------------------------------------|
|-----------------------------------------------|
|-----------------------------------------------|
|-----------------------------------------------|

rain must fall
|----------------------------------------------------------------------------|
|..-----22---22-----------22---22------------22p19-----22p19-----22---22-----|
|--21b23--b23--b23--r21b23--b23--b23--r21-b23-----21b23-----21b23--b23--b23--|
|----------------------------------------------------------------------------|
|----------------------------------------------------------------------------|
|----------------------------------------------------------------------------|

|-22b23---22-20-18----------------------------------|
|------------------21-20-18-------------------------|
|---------------------------20-19-17----------------|
|------------------------------------20-18-17-------|
|---------------------------------------------20-18\|
|---------------------------------------------------|

|-----------------------------------|
|-/15--t20p17--t20b22p19r_17-17__\--|
|-----------------------------------|
|-----------------------------------|
|-----------------------------------|
|-----------------------------------|

|----------------------------------------|
|-----15--t20p17--t20b22p19r_17t20p17v---|
|-16-------------------------------------|
|----------------------------------------|
|----------------------------------------|
|----------------------------------------|

|---------------------------------------------------------------|
|-15-17b19_t20p(b19)_t20__p19r17b19_r17p1517b19_t22-pb19_r17p15-|
|---------------------------------------------------------------|
|---------------------------------------------------------------|
|---------------------------------------------------------------|
|---------------------------------------------------------------|


|----------------------------------|
|-17b19t20---17b19t22---17b19t20---|
|----------------------------------|
|----------------------------------|
|----------------------------------|
|----------------------------------|

|------------------------------------------------------------------|
|-17b19__t20--17b19t20p(b19)t20p(b19)t20p(b19)t20p(b19)t20p(b19)t20|
|------------------------------------------------------------------|
|------------------------------------------------------------------|
|------------------------------------------------------------------|
|------------------------------------------------------------------|

|-1417--------------------------------------------------|
|-----t20p17t20p16t20p15t20p16t20p17t20p(b19)t20......--|
|-------------------------------------------------------|
|-------------------------------------------------------|
|-------------------------------------------------------|
|-------------------------------------------------------|


my baby does me
|----------8-11-10-----------|---------11-10-8---------|
|-------11---------8-11b13v--|-------8---------11------|
|-10b12----------------------|-10b12--------------10v--|
|----------------------------|-------------------------|
|----------------------------|-------------------------|
|----------------------------|-------------------------|

|------8--------------10---------|---8---11b13vvr/13b15-|
|----8---8-11b13vvrp8----11------|-8---8----------------|
|-10------------------------10v--|----------------------|
|--------------------------------|----------------------|
|--------------------------------|----------------------|
|--------------------------------|----------------------|

scandal
|-14b15----14--12-----12------------------------------------------------|
|------------------15-------------------7-7------------8-8-8-7b8_r7-7---|
|------------------------14b16_r14---b9-----7b9__r-7--------------------|
|-----------------------------------------------------------------------|
|-----------------------------------------------------------------------|
|-----------------------------------------------------------------------|

|-----------------------------10--------------------|
|-8p7p5--------------8-10b_12---12_r10p8-10b12-10v--|
|-------7-7b9---77----------------------------------|
|---------------------------------------------------|
|---------------------------------------------------|
|---------------------------------------------------|

                                              ____
-------------12------151312------------------14--------171514----------19b20---|
---------13------13--------151312--------15----15--1517------1715--------------|
-7\/---12--12--12----------------1412--14--14----14--------------171614--------|
-----14------------------------------16----------------------------------------|
-------------------------------------------------------------------------------|
-------------------------------------------------------------------------------|

|-19b20r1917--19----------|
|-----------20--20b22vv---|
|-------------------------|
|-------------------------|
|-------------------------|
|-------------------------|

was it all worth it
|--------5-----8p5-----5h8p5-------------trem--------------|
|----------8p5-----8p5---------5---------0\\---------------|
|-8b10-----------------------8---8-7-5v--0\\---7---5p4-5---|
|----------------------------------------------------------|
|----------------------------------------------------------|
|----------------------------------------------------------|

|---------------------------12------------------------------|
|-15b17__r15p13-15----13-15----15-13-12-13----________------|
|------------------------------------------14-12h14p12-14v--|
|-----------------------------------------------------------|
|-----------------------------------------------------------|
|-----------------------------------------------------------|

|------------------/17-|
|-5--------------------|
|---8-5-7-5--------/17-|
|-----------7-5-7------|
|----------------------|
|----------------------|

|-------13--------------1417p14------------15-------|
|-----13--16b18-------15-------15--------15--18b20--|
|---14--------------14-----------14----16-----------|
|-15--------------16---------------1617-------------|
|---------------------------------------------------|
|---------------------------------------------------|
        _________
|-------16--19p16---------------19b21----19b21---19vv---|
|-----17--17-----17--------17-(20)----------------------|
|---16-------------16----18-----------------------------|
|-18-----------------1819----19-------------------------|
|-------------------------------------------------------|
|-------------------------------------------------------|
comments
print report bad tab
2 comments total.
0 reply
killadelphia wrote on March 6 2006, 03:31 am

Yo, is this actually an album?? Or is it the solos in the album?? I think ists the solo's in the album..anyways great job dude

0 reply
angusrokks wrote on February 4 2008, 02:55 pm

Its just the solos, but there are way more solos than riffs on this album. Good job and accurate. Well done mate!

I want to post or [tab]
guest
You may want to rate the tab now too:
select rating
Please do not post tabs as comments. Select "correction" instead!