Oops, an error
Loading. Please wait.

A Song For The Deaf Tab

ver2
ver2

Whole song

Interactive

More versions @911Tabs.com
1,938 views 51 this week
4 commentsread comments
1 2 3 4 5
accurate
x 6
Autoscroll
+/-
esc
set tempo
stop
Contributor
Difficulty
Tuning
intermediate
C F A# D# G C
Hey! There's an official Ultimate Guitar app which is ideal
for learning songs when you're away from computer. Get the app
WARNING: You are trying to view
                                    content from Ultimate-Guitar.com
                                    in an unauthorized application,
                                    which is prohibited.

                                    Please use an official Ultimate
                                    Guitar Tabs application for iPhone,
                                    iPad or Android to access legitimate
                                    chords, guitar, bass, and drum tabs
                                    from Ultimate-Guitar.com database.

                                    Type "ultimate guitar tabs" in Apple
                                    App Store's or Android Market's
                                    search to find the application.
Intro
 c|------------------------------------------------------------------------|
 G|------------------------------------------------------------------------|
D#|------------------------------------------------------------------------|
A#|---------------------------------------6-----6--------------------------|
 F|-----------8p7---------8p7---------8p7---------8p7---------8p7----------|
 C|---0-----------0-----------0-----------------------0-----------0--------|

 c|------------------------------------------------------------------------|
 G|------------------------------------------------------------------------|
D#|------------------------------------------------------------------------|
A#|-------------------6-----6-----------------------------------------6----|
 F|---8p7---------8p7---------8p7---------8p7---------8p7---------8p7------|
 C|-------0-----------------------0-----------0-----------0----------------|

 c|------------------------------------------------------------------------|
 G|------------------------------------------------------------------------|
D#|------------------------------------------------------------------------|
A#|---6------------9-9----------6-6------------6-----6---------------------|
 F|----8p7---------------------------------8p7---------8p7---------8p7-----|
 C|--------0-----------0------------0----------------------0-----------0---|

 c|----------------------------------------------------------------------------|
 G|----------------------------------------------------------------------------|
D#|----------------------------------------------------------------------------|
A#|-------------------6-----6-------------9-9---------6-6----------6-----6-----|
 F|---8p7---------8p7---------8p7------------------------------8p7---------8p7-|
 C|-------0-----------------------0-----------0-----------0--------------------|


Verse 1
 c|-----------------------------------------------------|
 G|-----------------------------------------------------|
D#|-----------------------------------------------------|
A#|---------------------------------------6-----6-------|
 F|-----------8p7---------8p7---------8h7---------8p7---|
 C|---0-----------0-----------0-------------------------|

 c|-----------------------------------------------------|
 G|-----------------------------------------------------|
D#|-----------------------------------------------------|
A#|---------------------------------------6-----6-------|
 F|-----------8p7---------8p7---------8h7---------8p7---|
 C|---0-----------0-----------0-------------------------|

 c|-----------------------------------------------------|
 G|-----------------------------------------------------|
D#|-----------------------------------------------------|
A#|---------------------------------------6-----6-------|
 F|-----------8p7---------8p7---------8h7---------8p7---|
 C|---0-----------0-----------0-------------------------|

 c|-----------------------------------------------------|
 G|-----------------------------------------------------|
D#|-----------------------------------------------------|
A#|---------------------------------------6-----6-------|
 F|-----------8p7---------8p7---------8h7---------8p7---|
 C|---0-----------0-----------0-------------------------|

 c|-----------------------------------------------------|
 G|-----------------------------------------------------|
D#|-----------------------------------------------------|
A#|---------------------------------------6-----6-------|
 F|-----------8p7---------8p7---------8h7---------8p7---|
 C|---0-----------0-----------0-------------------------|

 c|-----------------------------------------------------|
 G|-----------------------------------------------------|
D#|-----------------------------------------------------|
A#|---------------------------------------6-----6-------|
 F|-----------8p7---------8p7---------8h7---------8p7---|
 C|---0-----------0-----------0-------------------------|

 c|-----------------------------------------------------|
 G|-----------------------------------------------------|
D#|-----------------------------------------------------|
A#|---------------------------------------6-----6-------|
 F|-----------8p7---------8p7---------8h7---------8p7---|
 C|---0-----------0-----------0-------------------------|

 c|-----------------------------------------------------|
 G|-----------------------------------------------------|
D#|-----------------------------------------------------|
A#|---------------------------------------6-----6-------|
 F|-----------8p7---------8p7---------8h7---------8p7---|
 C|---0-----------0-----------0-------------------------|

 c|-----------------------------------------------------|
 G|-----------------------------------------------------|
D#|-----------------------------------------------------|
A#|---------------------------------------6-----6-------|
 F|-----------8p7---------8p7---------8h7---------8p7---|
 C|---0-----------0-----------0-------------------------|

 c|-----------------------------------------------------|
 G|-----------------------------------------------------|
D#|-----------------------------------------------------|
A#|---------------------------------------6-----6-------|
 F|-----------8p7---------8p7---------8h7---------8p7---|
 C|---0-----------0-----------0-------------------------|


Chorus 1
 c|------------0-----------------0-----------------0-----------------0----------|
 G|------------0-----------------0-----------------0-----------------0----------|
D#|-----------------------------------------------------------------------------|
A#|---7---7--7----------9---9--9----------5---5--5----------5---5--5------------|
 F|---7---7--7----------9---9--9----------5---5--5----------5---5--5------------|
 C|---5---5--5----------7---7--7----------3---3--3----------3---3--3------------|

 c|------------0-----------------0----------------------------|
 G|------------0-----------------0----------------------------|
D#|-----------------------------------------------------------|
A#|---7---7--7----------9---9--9----------5-------------------|
 F|---7---7--7----------9---9--9----------5-------------------|
 C|---5---5--5----------7---7--7----------3-------------------|


Verse 2
 c|-----------------------------------------------------|
 G|-----------------------------------------------------|
D#|-----------------------------------------------------|
A#|---------------------------------------6-----6-------|
 F|-----------8p7---------8p7---------8h7---------8p7---|
 C|---0-----------0-----------0-------------------------|

 c|-----------------------------------------------------|
 G|-----------------------------------------------------|
D#|-----------------------------------------------------|
A#|---------------------------------------6-------------|
 F|-----------8p7---------8p7---------8h7---------------|
 C|---0-----------0-----------0-------------------------|


Solo 1
 c|---------------------------------------------------------------------------------|
 G|---13p12p10-12p10h12---13p12p10-12p10h12---13p12p10-12p10h12---13p12p10-12p10h12-|
D#|---------------------------------------------------------------------------------|
A#|---------------------------------------------------------------------------------|
 F|---------------------------------------------------------------------------------|
 C|---------------------------------------------------------------------------------|

 c|----------------------------------------------------------------|
 G|---10p8p7-8p7h8---10p8p7-8p7h7---10p8p7-8p7h8---10p8p7-8p7h7----|
D#|----------------------------------------------------------------|
A#|----------------------------------------------------------------|
 F|----------------------------------------------------------------|
 C|----------------------------------------------------------------|

 c|---------------------------------------------------------------------------------|
 G|---13p12p10-12p10h12---13p12p10-12p10h12---13p12p10-12p10h12---13p12p10-12p10h12-|
D#|---------------------------------------------------------------------------------|
A#|---------------------------------------------------------------------------------|
 F|---------------------------------------------------------------------------------|
 C|---------------------------------------------------------------------------------|

 c|----------------------------------------------------------------|
 G|---10p8p7-8p7h8---10p8p7-8p7h7---10p8p7-8p7h8---10p8p7-8p7h7----|
D#|----------------------------------------------------------------|
A#|----------------------------------------------------------------|
 F|----------------------------------------------------------------|
 C|----------------------------------------------------------------|


Verse 3
 c|-----------------------------------------------------|
 G|-----------------------------------------------------|
D#|-----------------------------------------------------|
A#|---------------------------------------6-----6-------|
 F|-----------8p7---------8p7---------8h7---------8p7---|
 C|---0-----------0-----------0-------------------------|

 c|-----------------------------------------------------|
 G|-----------------------------------------------------|
D#|-----------------------------------------------------|
A#|---------------------------------------6-----6-------|
 F|-----------8p7---------8p7---------8h7---------8p7---|
 C|---0-----------0-----------0-------------------------|

 c|-----------------------------------------------------|
 G|-----------------------------------------------------|
D#|-----------------------------------------------------|
A#|---------------------------------------6-----6-------|
 F|-----------8p7---------8p7---------8h7---------8p7---|
 C|---0-----------0-----------0-------------------------|

 c|-----------------------------------------------------|
 G|-----------------------------------------------------|
D#|-----------------------------------------------------|
A#|---------------------------------------6-----6-------|
 F|-----------8p7---------8p7---------8h7---------8p7---|
 C|---0-----------0-----------0-------------------------|


Solo 2
 c|-------------------------------12-10-----------------|
 G|---13---10h12---------------12-----------------------|
D#|--------------10-------13----------------------------|
A#|-----------------------------------------------------|
 F|-----------------------------------------------------|
 C|-----------------------------------------------------|

 c|-------------------------------12-10-----------------|
 G|---13---10h12---------------12-----------------------|
D#|--------------10-------13----------------------------|
A#|-----------------------------------------------------|
 F|-----------------------------------------------------|
 C|-----------------------------------------------------|


Verse 4
 c|-----------------------------------------------------|
 G|-----------------------------------------------------|
D#|-----------------------------------------------------|
A#|---------------------------------------6-----6-------|
 F|-----------8p7---------8p7---------8h7---------8p7---|
 C|---0-----------0-----------0-------------------------| 

 c|-----------------------------------------------------|
 G|-----------------------------------------------------|
D#|-----------------------------------------------------|
A#|---------------------------------------6-----6-------|
 F|-----------8p7---------8p7---------8h7---------8p7---|
 C|---0-----------0-----------0-------------------------|

 c|-----------------------------------------------------|
 G|-----------------------------------------------------|
D#|-----------------------------------------------------|
A#|---------------------------------------6-----6-------|
 F|-----------8p7---------8p7---------8h7---------8p7---|
 C|---0-----------0-----------0-------------------------|

 c|-----------------------------------------------------|
 G|-----------------------------------------------------|
D#|-----------------------------------------------------|
A#|---------------------------------------6-----6-------|
 F|-----------8p7---------8p7---------8h7---------8p7---|
 C|---0-----------0-----------0-------------------------|


Chorus 2
 c|------------0-----------------0-----------------0-----------------0----------|
 G|------------0-----------------0-----------------0-----------------0----------|
D#|-----------------------------------------------------------------------------|
A#|---7---7--7----------9---9--9----------5---5--5----------5---5--5------------|
 F|---7---7--7----------9---9--9----------5---5--5----------5---5--5------------|
 C|---5---5--5----------7---7--7----------3---3--3----------3---3--3------------|

 c|------------0-----------------0-----------------0-----------------0----------|
 G|------------0-----------------0-----------------0-----------------0----------|
D#|-----------------------------------------------------------------------------|
A#|---7---7--7----------9---9--9----------5---5--5----------5---5--5------------|
 F|---7---7--7----------9---9--9----------5---5--5----------5---5--5------------|
 C|---5---5--5----------7---7--7----------3---3--3----------3---3--3------------|

 c|------------0-----------------0-----------------0-----------------0----------|
 G|------------0-----------------0-----------------0-----------------0----------|
D#|-----------------------------------------------------------------------------|
A#|---7---7--7----------9---9--9----------5---5--5----------5---5--5------------|
 F|---7---7--7----------9---9--9----------5---5--5----------5---5--5------------|
 C|---5---5--5----------7---7--7----------3---3--3----------3---3--3------------|

 c|------------0-----------------0----------------------------|
 G|------------0-----------------0----------------------------|
D#|-----------------------------------------------------------|
A#|---7---7--7----------9---9--9----------5-------------------|
 F|---7---7--7----------9---9--9----------5-------------------|
 C|---5---5--5----------7---7--7----------3-------------------|


Bridge 1
 c|-------------------------------------------------------|
 G|-------------------------------------------------------|
D#|-------------------------------------------------------|
A#|---2--------------------------2--2-----2---------------|
 F|---2--------------------------2--2-----2---------------|
 C|---0--------------------------0--0-----0---------------| 

 c|-------------------------------------------------------|
 G|-------------------------------------------------------|
D#|-------------------------------------------------------|
A#|--2--2--2------2------2------2--2--2--2--2-------------|
 F|--2--2--2------2------2------2--2--2--2--2-------------|
 C|--0--0--0------0------0------0--0--0--0--0-------------| 

 c|-----------------------------------------------------|
 G|-----------------------------------------------------|
D#|-----------------------------------------------------|
A#|---2-------------------------2--2--------------------|
 F|---2-------------------------2--2--------------------|
 C|---0-------------------------0--0--------------------| 

 c|-----------------------------------------------------|
 G|-----------------------------------------------------|
D#|-----------------------------------------------------|
A#|---2-------------------------2--2--------------------|
 F|---2-------------------------2--2--------------------|
 C|---0-------------------------0--0--------------------| 


Solo 3
 c|---------------------------------------------------------------------------------|
 G|---13p12p10-12p10h12---13p12p10-12p10h12---13p12p10-12p10h12---13p12p10-12p10h12-|
D#|---------------------------------------------------------------------------------|
A#|---------------------------------------------------------------------------------|
 F|---------------------------------------------------------------------------------|
 C|---------------------------------------------------------------------------------|

 c|----------------------------------------------------------------|
 G|---10p8p7-8p7h8---10p8p7-8p7h7---10p8p7-8p7h8---10p8p7-8p7h7----|
D#|----------------------------------------------------------------|
A#|----------------------------------------------------------------|
 F|----------------------------------------------------------------|
 C|----------------------------------------------------------------|

 c|---------------------------------------------------------------------------------|
 G|---13p12p10-12p10h12---13p12p10-12p10h12---13p12p10-12p10h12---13p12p10-12p10h12-|
D#|---------------------------------------------------------------------------------|
A#|---------------------------------------------------------------------------------|
 F|---------------------------------------------------------------------------------|
 C|---------------------------------------------------------------------------------|

 c|----------------------------------------------------------------|
 G|---10p8p7-8p7h8---10p8p7-8p7h7---10p8p7-8p7h8---10p8p7-8p7h7----|
D#|----------------------------------------------------------------|
A#|----------------------------------------------------------------|
 F|----------------------------------------------------------------|
 C|----------------------------------------------------------------|

 c|---------------------------------------------------------------------------------|
 G|---13p12p10-12p10h12---13p12p10-12p10h12---13p12p10-12p10h12---13p12p10-12p10h12-|
D#|---------------------------------------------------------------------------------|
A#|---------------------------------------------------------------------------------|
 F|---------------------------------------------------------------------------------|
 C|---------------------------------------------------------------------------------|

 c|----------------------------------------------------------------|
 G|---10p8p7-8p7h8---10p8p7-8p7h7---10p8p7-8p7h8---10p8p7-8h10p8---|
D#|----------------------------------------------------------------|
A#|----------------------------------------------------------------|
 F|----------------------------------------------------------------|
 C|----------------------------------------------------------------|

 c|---------------------------------------------------------------------------------|
 G|---13p12p10-12p10h12---13p12p10-12p10h12---13p12p10-12p10h12---13p12p10-12h13p12-|
D#|---------------------------------------------------------------------------------|
A#|---------------------------------------------------------------------------------|
 F|---------------------------------------------------------------------------------|
 C|---------------------------------------------------------------------------------|

 c|----------------------------------------------------------------|
 G|---10p8p7-8p7h8---10p8p7-8p7h7---10p8p7-8p7h8---10p8p7-8p7h7----|
D#|----------------------------------------------------------------|
A#|----------------------------------------------------------------|
 F|----------------------------------------------------------------|
 C|----------------------------------------------------------------|


Bridge 2
 c|------------------------------------------------------------------------------|
 G|------------------------------------------------------------------------------|
D#|------------------------------------------------------------------------------|
A#|---------------12-----------------12-----------------12-----------------14----|
 F|---------10h11--------------10h11--------------10h11--------------10h11-------|
 C|---0------------------0------------------0------------------0-----------------|

 c|------------------------------------------------------------------------------|
 G|------------------------------------------------------------------------------|
D#|------------------------------------------------------------------------------|
A#|---------------12-----------------12-----------------12-----------------14----|
 F|---------10h11--------------10h11--------------10h11--------------10h11-------|
 C|---0------------------0------------------0------------------0-----------------|

 c|------------------------------------------------------------------------------|
 G|------------------------------------------------------------------------------|
D#|------------------------------------------------------------------------------|
A#|---------------12-----------------12-----------------12-----------------14----|
 F|---------10h11--------------10h11--------------10h11--------------10h11-------|
 C|---0------------------0------------------0------------------0-----------------|

 c|------------------------------------------------------------------------------|
 G|------------------------------------------------------------------------------|
D#|------------------------------------------------------------------------------|
A#|---------------12-----------------12-----------------12-----------------14----|
 F|---------10h11--------------10h11--------------10h11--------------10h11-------|
 C|---0------------------0------------------0------------------0-----------------|


Chorus 3
 c|------------0-----------------0-----------------0-----------------0----------|
 G|------------0-----------------0-----------------0-----------------0----------|
D#|-----------------------------------------------------------------------------|
A#|---7---7--7----------9---9--9----------5---5--5----------5---5--5------------|
 F|---7---7--7----------9---9--9----------5---5--5----------5---5--5------------|
 C|---5---5--5----------7---7--7----------3---3--3----------3---3--3------------|

 c|------------0-----------------0-----------------0-----------------0----------|
 G|------------0-----------------0-----------------0-----------------0----------|
D#|-----------------------------------------------------------------------------|
A#|---7---7--7----------9---9--9----------5---5--5----------5---5--5------------|
 F|---7---7--7----------9---9--9----------5---5--5----------5---5--5------------|
 C|---5---5--5----------7---7--7----------3---3--3----------3---3--3------------|

 c|------------0-----------------0-----------------0-----------------0----------|
 G|------------0-----------------0-----------------0-----------------0----------|
D#|-----------------------------------------------------------------------------|
A#|---7---7--7----------9---9--9----------5---5--5----------5---5--5------------|
 F|---7---7--7----------9---9--9----------5---5--5----------5---5--5------------|
 C|---5---5--5----------7---7--7----------3---3--3----------3---3--3------------|

 c|------------0-----------------0----------------------------|
 G|------------0-----------------0----------------------------|
D#|-----------------------------------------------------------|
A#|---7---7--7----------9---9--9----------5-------------------|
 F|---7---7--7----------9---9--9----------5-------------------|
 C|---5---5--5----------7---7--7----------3-------------------|
comments
print report bad tab
4 comments total. Showing first comments.
+1 reply
Antpetitt wrote on November 14 2013, 04:01 pm

Basically perfect, nice job. :)

0 reply
starsh wrote on November 14 2013, 05:22 pm

Thanks man! I'm not exactly sure of the part I labeled as bridge 2, but everything else is correct. Corrections to that part would be appreciated!

0 reply
Antpetitt wrote on November 14 2013, 05:52 pm

There is a second guitar during the 1st and 3rd solo that plays a higher part BTW. I'll try and figure out the bridge 2, and put any corrections.

I want to post or [tab]
guest
You may want to rate the tab now too:
select rating
Please do not post tabs as comments. Select "correction" instead!