Oops, an error
Loading. Please wait.

Blood Is Love Bass Tab

ver2
ver2

Whole song

More versions @911Tabs.com
178 views 6 this week
no commentswrite comment
1 2 3 4 5
excellent!
x 1
Autoscroll
+/-
esc
set tempo
stop
Contributor
Difficulty
intermediate
Hey! There's an official Ultimate Guitar app which is ideal
for learning songs when you're away from computer. Get the app
WARNING: You are trying to view
                                    content from Ultimate-Guitar.com
                                    in an unauthorized application,
                                    which is prohibited.

                                    Please use an official Ultimate
                                    Guitar Tabs application for iPhone,
                                    iPad or Android to access legitimate
                                    chords, guitar, bass, and drum tabs
                                    from Ultimate-Guitar.com database.

                                    Type "ultimate guitar tabs" in Apple
                                    App Store's or Android Market's
                                    search to find the application.
------------------------------------------------------------------------------------|      
The blood is love - queens of the stone age
------------------------------------------------------------------------------------|

Tabbed by: BOBABLONDE


Tuning: Standard


Intro

G|---------------------------------------------------------------------------|
D|---------------------------------------------------------------------------|
A|-----------14-14---14-14---14-14---14-14---13-13---13-13---13-13---13-13---|
E|---------0-------0-------0-------0-------0-------0-------0-------0---------|

G|---------------------------------------------------------------------------|
D|---------------------------------------------------------------------------|
A|-----------16-16---16-16---16-16---16-16---14-14---2-2---7-7---7-7---------|
E|---------0-------0-------0-------0-------0-------0-----0-----0-------------|

G|---------------------------------------------------------------------------|
D|----------------------------------------------17-17------------------------|
A|-----11-11---7--7-------------7--7---10-10-//---------7-7----10--10--------|
E|---0-------0------4--3--2--0-------0-------0--------0------0---------------|

G|---------------------------------------------------------------------------|
D|---------------------------------------------------------------------------|
A|--------9-9-9---------9---------8-8-8-------8-8-8-------8-8-8------8-8-8---|
E|--0-0-0-------0-0-0-0---0-0-0-0-------0-0-0-------0-0-0-------0-0-0--------|


Verse
G|---------------------------------------------------------------------------|
D|---------------------------------------------------------------------------|
A|-----10-10-----10-10-----10-10-----10-10-----9-9-----9-9-----9-9-----9-9---|
E|-0-0-------0-0-------0-0-------0-0-------0-0-----0-0-----0-0-----0-0-------|

G|---------------------------------------------------------------------------|
D|---------------------------------------------------------------------------|
A|---------5-5-----5-5-----5-5-----5-5-----4-4-----4-4-----4-4-----4-4-------|
E|-----0-0-----0-0-----0-0-----0-0-----0-0-----0-0-----0-0-----0-0-----------|

G|---------------------------------------------------------------------------|
D|---------------------------------------------------------------------------|
A|---------3-3-----3-3-----3-3-----3-3-----1-1-----1-1-----1-1-----1-1-------|
E|-----0-0-----0-0-----0-0-----0-0-----0-0-----0-0-----0-0-----0-0-----------|
Play 2 times


G|-------12-----------------12-----------------12-----------------12---------|
D|-12-14-----12-14----12-14-----12-14----11-14-----11-14----11-14-----11-14--|
A|---------------------------------------------------------------------------|
E|---------------------------------------------------------------------------|

G|-------12-----------------12-----------------12-----------------12---------|
D|-12-14-----12-14----12-14-----12-14----11-14-----11-14----11-14-----11-14--|
A|---------------------------------------------------------------------------|
E|---------------------------------------------------------------------------|

G|------12-----------------12-----------------12-----------------12----------|
D|---14--------14------14--------14------14--------14-------14--------14-----|
A|15--------15------15--------15------13--------13-------13--------13--------|
E|---------------------------------------------------0-0-----------------0---|

Play once

G|---------------------------------------------------------------------------|
D|---------------------------------------------------------------------------|
A|---------------------------------------------------------------------------|
E|-0-0-10b(12)--0-0-10b(12)--0-10b(12)--0-0-10b(12)--0-0-10b(12)--0-10b(12)--|


G|---------------------------------------------------------------------------|
D|---------------------------------------------------------------------------|
A|---------------------------------------------------------------------------|
E|-0-0-10b(12)--0-0-10b(12)--0-10b(12)--0-0-10b(12)--0-0-10b(12)--0-10b(12)--|
    Play 3 times


G|---------------------------------------------------------------------------|
D|---------------------------------------------------------------------------|
A|-----10-10-----10-10-----10-10-----10-10-----9-9-----9-9-----9-9-----9-9---|
E|-0-0-------0-0-------0-0-------0-0-------0-0-----0-0-----0-0-----0-0-------|

G|---------------------------------------------------------------------------|
D|---------------------------------------------------------------------------|
A|---------5-5-----5-5-----5-5-----5-5-----4-4-----4-4-----4-4-----4-4-------|
E|-----0-0-----0-------0-------0-------0-0-----0-0-----0-0-----0-0-----------|

G|------------------------------------------------------------------------------|
D|------------------------------------------------------------------------------|
A|---------3-3-----3-3-----3-3-----3-3-----1-1-----1-1-----1-1-----1-1----------|
E|-----0-0-----0-0-----0-0-----0-0-----0-0-----0-0-----0-0-----0-0-----0--------|
Play once

Chorus

G|---------------------------------------------------------------------------|
D|---------------------------------------------------------------------------|
A|-------14\-------7-------13\-------7-------16\-------7-------14\-------7---|
E|---0-0-----0-0-0---0-0-0-----0-0-0---0-0-0-----0-0-0---0-0-0-----0-0-0-----|

G|---------------------------------------------------------------------------|
D|---------------------------------------------------------------------------|
A|---------11\-------7-------10\-------7-------9\-------7-------8\-------7---|
E|---0-0-0-----0-0-0---0-0-0-----0-0-0---0-0-0----0-0-0---0-0-0----0-0-0-----|

G|---------------------------------------------------------------------------|
D|---------------------------------------------------------------------------|
A|----------5\-------5--------5/-------5-------------------------------------|
E|----0-0-0----0-0-0---0-0-0-----0-0-0---------------------------------------|


Verse 2
G|---------------------------------------------------------------------------|
D|---------------------------------------------------------------------------|
A|-----10-10-----10-10-----10-10-----10-10-----9-9-----9-9-----9-9-----9-9---|
E|-0-0-------0-0-------0-0-------0-0-------0-0-----0-0-----0-0-----0-0-------|

G|---------------------------------------------------------------------------|
D|---------------------------------------------------------------------------|
A|---------5-5-----5-5-----5-5-----5-5-----4-4-----4-4-----4-4-----4-4-------|
E|-----0-0-----0-0-----0-0-----0-0-----0-0-----0-0-----0-0-----0-0-----------|

G|---------------------------------------------------------------------------|
D|---------------------------------------------------------------------------|
A|---------3-3-----3-3-----3-3-----3-3-----3-3-----3-3-----3-3-----3-3-------|
E|-----0-0-----0-0-----0-0-----0-0-----0-0-----0-0-----0-0-----0-0-----------|

G|---------------------------------------------------------------------------|
D|---------------------------------------------------------------------------|
A|---------1-1-----1-1-----1-1-----1-1-----3-3----3-3-----3-3----3-3---------|
E|-----0-0-----0-0-----0-0-----0-0-----0-0-----0------0-------0------0-------|

G|---------------------------------------------------------------------------|
D|---------------------------------------------------------------------------|
A|--------1-1-----1-1-----1-1-----1-1----------------------------------------|
E|----0-0-----0-0-----0-0-----0-0--------------------------------------------|


E|---------------------------------------------------------------------------|
D|---------------------------------------------------------------------------|
A|-----10-10-----10-10-----10-10-----10-10-----9-9-----9-9-----9-9-----9-9---|
E|-0-0-------0-0-------0-0-------0-0-------0-0-----0-0-----0-0-----0-0-------|

G|---------------------------------------------------------------------------|
D|---------------------------------------------------------------------------|
A|---------5-5-----5-5-----5-5-----5-5-----4-4-----4-4-----4-4-----4-4-------|
E|-----0-0-----0-0-----0-0-----0-0-----0-0-----0-0-----0-0-----0-0-----------|

G|---------------------------------------------------------------------------|
D|---------------------------------------------------------------------------|
A|---------3-3-----3-3-----3-3-----3-3-----1-1-----1-1-----1-1-----1-1-------|
E|-----0-0-----0-0-----0-0-----0-0-----0-0-----0-0-----0-0-----0-0-----------|


G|---------------------------------------------------------------------------|
D|---------------------------------------------------------------------------|
A|----------3-3-----3-3-----3-3-----3-3-----3-3-----3-3-----3-3-----3-3------|
E|-----0-0------0-0-----0-0-----0-0------0-------0-------0-------0-------0---|

G|---------------------------------------------------------------------------|
D|---------------------------------------------------------------------------|
A|-------1-1-----1-1-----1-1-----1-1-------3-3-----3-3-----3-3--------3-3----|
E|---0-0-----0-0-----0-0-----0-0-------0-0-----0-0-----0-0------0-0----------|

G|---------------------------------------------------------------------------|
D|---------------------------------------------------------------------------|
A|--------3-3-----3-3-----3-3-----3-3-------1-1------1-1-------1-1------1-1--|
E|---0-0------0-0-----0-0-----0-0------0-0-------0-0------0-0------0-0-------|


G|---------------------------------------------------------------------------|
D|---------------------------------------------------------------------------|
A|-------1-1------1-1------1-1-----1-1---------1------1------1------1--------|
E|---0-0------0-0-----0-0------0-0-------------------------------------------|

This next bit is very random, based around this patern
G|---------------------------------------------------------------------------|
D|---------------------------------------------------------------------------|
A|---------------------------------------------------------------------------|
E|-0-0-10b(12)--0-0-10b(12)--0-10b(12)--0-0-10b(12)--0-0-10b(12)--0-10b(12)--|

Play 12 bars
Then...


G|---------------------------------------------------------------------------|
D|---------------------------------------------------------------------------|
A|-----10-10-----10-10-----10-10-----10-10-----9-9-----9-9-----9-9-----9-9---|
E|-0-0-------0-0-------0-0-------0-0-------0-0-----0-0-----0-0-----0-0-------|

G|---------------------------------------------------------------------------|
D|---------------------------------------------------------------------------|
A|---------5-5-----5-5-----5-5-----5-5-----4-4-----4-4-----4-4-----4-4-------|
E|-----0-0-----0-0-----0-0-----0-0-----0-0-----0-0-----0-0-----0-0-----------|

G|---------------------------------------------------------------------------|
D|---------------------------------------------------------------------------|
A|---------3-3-----3-3-----3-3-----3-3-----3-3-----3-3-----3-3-----3-3-------|
E|-----0-0-----0-0-----0-0-----0-0-----0-0-----0-0-----0-0-----0-0-----------|

G|---------------------------------------------------------------------------|
D|---------------------------------------------------------------------------|
A|---------3-3-----3-3-----3-3-----3-3-----3-3-----3-3-----3-3-----3-3-------|
E|-----0-0-----0-0-----0-0-----0-0-----0-0-----0-0-----0-0-----0-0-----------|


G|---------------------------------------------------------------------------|
D|---------------------------------------------------------------------------|
A|---------3-3-----3-3-----3-3-----3-3-----3-3-----3-3-----3-3-----3-3-------|
E|-----0-0-----0-0-----0-0-----0-0-----0-0-----0-0-----0-0-----0-0-----------|


G|---------------------------------------------------------------------------|
D|---------------------------------------------------------------------------|
A|---------1-1-----1-1-----1-1-----1-1---------------------------------------|
E|-----0-0-------------------------------------------------------------------|

| /  slide up
| \  slide down
| h  hammer-on
| p  pull-off
| ~  vibrato
| +  harmonic
| x  Mute note
===============================================================================
comments
We did not receive enough feedback on this tab! Please rate:
print report bad tab
1 2 3 4 5
I want to post or [tab]
guest
You may want to rate the tab now too:
select rating
Please do not post tabs as comments. Select "correction" instead!