Oops, an error
Loading. Please wait.

Lullabies To Paralyze Bass Tab

5,863 views 1 this week
5 commentsread comments
1 2 3 4 5
accurate
x 8
add to favorites launch autoscroll
font size
0
reset
Autoscroll
+/-
esc
set tempo
stop
Contributor
Difficulty
intermediate
WARNING: You are trying to view
                                    content from Ultimate-Guitar.com
                                    in an unauthorized application,
                                    which is prohibited.

                                    Please use an official Ultimate
                                    Guitar Tabs application for iPhone,
                                    iPad or Android to access legitimate
                                    chords, guitar, bass, and drum tabs
                                    from Ultimate-Guitar.com database.

                                    Type "ultimate guitar tabs" in Apple
                                    App Store's or Android Market's
                                    search to find the application.
Tabbed By :  Tim Jessop
e-mail: retardedfishmonkey@hotmail.com

Nearly all of this was tabbed by me, but I may have used some parts of other people, all 
I have borrowed stuff off will be credited with the name/address posted on the original piece.

This Lullaby = No Bass

Medication: Tune down a half step (Eb, Ab, Db, Gb)

G|----------------------------------------------------------------------------------|
D|-9-9-9-9-9-9-9-9-------------------9-9-9-9-9-9-9-9--------------------------------|
A|----------------------------------------------------------------------------------|
E|--------------------7-7-7-7-7-7-7-7--------------------7-7-7-7-7-7-7-7------------|

G|----------------------------------------------------------------------------------|
D|----------------------------------------------------------------------------------|
A|----------------------------------------------------------------------------------|
E|-5-7-5-7-5-7-5-7-5-7-7-7-7-7-7-7-7-7-7-X-7-7-7-7-7-7-7-7-7-7----------------------|

G|-----------------------------------------------------------------------------------|
D|-----------------------------------------------------------------------------------|
A|-----------5---5---------------8----8----------------------------------------------|
E|--3--3---------------5---5----------------5-7-5-7-5-7-5-7-5-7-7-7-7----------------|

It sometimes switches between this

G|---------------------------------------------------------------------------------|
D|---------------------------------------------------------------------------------|
A|---------------------------------------------------------------------------------|
E|-5-7-5-7-5-7-5-7-5-7-7-7-7-7-7-7-7-7-7-7-----------------------------------------|

And this

G|------------------------------------------------------------------------------------|
D|-----------------------------------------9--7---------------------------------------|
A|------------------------------------------------------------------------------------|
E|-5-7-5-7-5-7-5-7-7-7-7-7-7-7-7-7--------5--7-7-7-7-7-7-7----------------------------|

G|-----------------------------------------------------------------------------------|
D|-----------------------------------------------------------------------------------|
A|---------9--9--------------12----12-----5-7-5-7-5-7-5-7-7-7-7-7-7------------------|
E|--7--7-----------9---9-------------------------------------------------------------|

Obviously the order for this is a bit scrambled but it isn’t hard to figure out.

======================================================================================================

Everybody knows that you are insane: Tune down 2 steps (C F Bb Eb)


Intro

G|--------------------------------------------------------------------------------------|
D|--------------------------------------------------------------------------------------|
A|-5-5-5-5-4-4-4-4-1-1-1-1-----------5-5-5-5-7-7-7-6^-8-8-8-8---------------------------|
E|-------------------------------3-3-3-3------------------------------------------------|

Chorus

G|-------------------------------------------------------------------------------------|
D|-------------------------------------------------------------------------------------|
A|-5-5-5-5-5-5-5-5-5-5-5-5-5-5-5-5-4-4-4-4-4-4-4-4-4-----------------------------------|
E|----------------------------------------------------------------6-6-6-6-6-6-6-0------|

G|------------------------------------------------------------------------------------|
D|------------------------------------------------------------------------------------|
A|------------------------------------------------------------------------------------|
E|-3-3-3-3-3-5--0--3-3-3-3-3-5--0--3-3-3-3-3-5--0--3-3-3-3-3--------------------------|

^^played twice^^

Verse

G|------------------------------------------------------------------------------------|
D|------------------------------------------------------------------------------------|
A|-5-5----5-5-5----5-5-5---5-5-5---4-4-4---4-4-4---4-4-4----4--4-4--------------------|
E|------------------------------------------------------------------------------0-----|

G|-------------------------------------------------------------------------------------|
D|-------------------------------------------------------------------------------------|
A|-------------------------------------------------------------------------------------|
E|-6-6-6-6-6-6-6-6-6-6-6-6-6-6-0-3-3-3-3-3-3-3-3-3-3-3-3-3-3-5--0----------------------|

G|------------------------------------------------------------------------------------|
D|------------------------------------------------------------------------------------|
A|-5-5---5-5-5---5-5-5---5-5-5---7-7-7----7-7-7----7-7-7---7-7-7----------------------|
E|-----------------------------------------------------------------------------0------|

G|-----------------------------------------------------------------------------------|
D|-----------------------------------------------------------------------------------|
A|-----------------------------------------------------------------------------------|
E|-6-6-6-6-6-6-6-6-6-6-6-6-6-6-6-6-6-6-6-6-6-6-6-6-6-6-6-6-6-------------------------|

^^played twice^^

Play chorus quite a lot of times


Guitar solo

G|-------------------------------------------------------------------------------------|
D|-------------------------------------------------------------------------------------|
A|-------------------------------------------------------------------------------------|
E|-6-6-0---6-6-0---6-6-0---6-6-0---10-10-0---10-10-0---8-8-0---8-8-0-------------------|

^^played 3 times^^

Bridge

G|--------------------------------------------------------------------------------------|
D|--------------------------------------------------------------------------------------|
A|--------------------------------------------------------------------------------------|
E|-1-1-1-1-1-1-1-1-1-1-1-1-1-1-1-5-5-5-5-5-5-5-5-5-5-5-5-3-3-3-3-3-3-3------------------|

^^played twice^^

G|----------------------------------------------------------------------------------|
D|----------------------------------------------------------------------------------|
A|----------------------------------------------------------------------------------|
E|-3-3-3-3-3-3-5--0--3-3-3-3-3-5----------------------------------------------------|

Chorus played till finish.

======================================================================================================

Tangled up in plaid. Tune down 2 steps (C G Eb Bb)

Intro

G|-----------------------------------------------------------------------------|
D|-----------------------------------------------------------------------------|
A|-----------------------------------------------------------------------------|
E|-0--0h7---0h7----0h8--0h8---8/10/7---0h7---0h8---8/12------------------------|

Verse

G|-----------------------------------------------------------------------------|
D|-----------------------------------------------------------------------------|
A|-----------------------------------------------------------------------------|
E|---0h7--0h7---0h8---0h8----8/10/7---0h7---0h8---0h8--8/10/7------------------|

Repeat lots of times


G|-----------------------------------------------------------------------------|
D|-----------------------------------------------------------------------------|
A|-----------------------------------------------------------------------------|
E|--0h7-10p7-8-----------------------------------------------------------------|

Then back to the verse, after a few repeats you play this

G|-----------------------------------------------------------------------------|
D|-----------------------------------------------------------------------------|
A|--------8-9/10--9--9/10--10/14--14/10 8--------------------------------------|
E|--8-8------------------------------------------------------------------------|

Chorus (each section is played twice)

G|-----------------------------------------------------------------------------|
D|-----------------------------------------------------------------------------|
A|-----------------------------------------------------------------------------|
E|-10p0-10p0-10p0-10/12---8p0-8p0-8p0-8/12---5p0-5p0-5-X-7---------------------|

^^twice^^

Basically repeat everything

Solo (play the chorus once then switch to this)

G|-----------------------------------------------------------------------------|
D|-----------------------------------------------------------------------------|
A|-----------------------------------------------------------------------------|
E|-8p0-8p0-8p0-8/12--5p0-5p0-5-X-7---------------------------------------------|

Repeat till end.

Burn the witch (E A D G)

Intro
G|--------------------------------------------------------------------|
D|--------------------------------------------------------------------|
A|--------------------------------------------------------------------|
E|-0-0------------0-0-------------0-0-----------0-0-------------------|

Play once

Verse 1
G|--------------------------------------------------------------------------|
D|------5---------------------------------5---------------------------------|
A|---------7-5---------5--------------------7-5----------5------------------|
E|-0-0------------0-0-----7-5-3----0-0------------0-0----7-5-3--------------|

G|-------------------------------------------------------------------------|
D|-----5----------------------------------5--------------------------------|
A|--------7-5-----------5-------------------7-5--------------5---5---------|
E|-0-0------------0-0----7-5-3----0-0------------0-0-(7)-----7-------------|

Play twice

Chorus
G|-----------------12--12--9--9---------------------------|
D|--9--9--13--13------------------------------------------|
A|---------------10--10--7--7-----------------------------|
E|-7--7--11--11-------------------------------------------|

Play Four times

Repeat Intro (fills are replaced by guitar)

Verse 2 (very hard to pick out)
G|---------------------------------------------------------------|
D|---------------------------------------------------------------|
A|---------------------------------------------------------------|
E|-0-0----0-3-0---0-0----0-3-0---0-0----0-3-0---0-0----0-3-0-----|

Repeat 3 times

Even harder to pick out, it changes over when Josh says 'Fan the Flames'
The guitar also goes up an octave if that helps.

G|------------------------------------------------------------------------|
D|-----5----------------------------------5-------------------------------|
A|-------7-5-----------5-------------------7-5---------5------------------|
E|-0-0------------0-0----7-5-3----0-0------------0-0---7-5-3--------------|

G|-------------------------------------------------------------------------|
D|-----5---------------------------------5---------------------------------|
A|-------7-5----------5--------------------7-5--------------5---5----------|
E|-0-0------------0-0---7-5-3----0-0------------0-0---(7)---7--------------|

Play intro,
Play chorus, but add onto the end this.

Chorus addition.
G|-------------------12--12--9--9---------------------12------9---|
D|--9--9---13--13--------------------9------13--------------------|
A|-----------------10--10--7--7--------------------10---10--7---7-|
E|-7--7--11--11--------------------7---7--11---11-----------------|

Repeat Intro

Solo Backing (same as verse 2, but with an extra note added in.)
G|--------------------------------------------------------------------|
D|--------------------------------------------------------------------|
A|--------------------------------------------------------------------|
E|-0-0--0-3-0-3---0-0--0-3-0-3---0-0--0-3-0-3---0-0--0-3-0-3----------|

Play 4 times.

Play verse 1, 2 times.

In my head   (E A D G)

Intro

G|--------------------------------------------------------------------------------|
D|--------------------------------------------------------------------------------|
A|------------------------------7-5---5------------------------------7-5---5------|
E|-0-0-0-0-0-0-0-0-0-0-0-0-----7---3-3-3-3-3-3-3-3-3-3-3-3-----7------------------|

G|--------------------------------------------------------------------------------|
D|--------------------------------------------------------------------------------|
A|5-5-5-5-5-5-5-5-5-5-5-5-5-5-5-5-6-6-6-6-6-6-6-6-6-6-6-6-6-6-6-------------------|
E|--------------------------------------------------------------------------------|

Verse

G|-----------------------------------------------------------------------------|
D|-----------------------------------------------------------------------------|
A|-----------------------------------------------------------------------------|
E|-0-0-0-0-0-0-0-8-8-8-8-8-8-8-9-9-9-9-9-9-9--5---5-5---3-5-3------------------|

Play 3 times

The Chorus is the same as the intro

Verse

Chorus twice

Guitar solo 1

G|-----------------------------------------------------------------------------|
D|-----------------------------------------------------------------------------|
A|-----------------------------------------------------------------------------|
E|-7-7-7-7-7---3--3--0---0-0--10---10-10-10-10-10------------------------------|

Repeat twice

Verse (but only play the riff twice)

Bridge

G|--------------------------------------------------------------------------------|
D|--------------------------------------------------------------------------------|
A|------------------------------------------------5-------------------5/6---------|
E|-0-------------------------3----------------------------------------------------|

Chorus played 3 times.


Little Sister (D A D G)

Intro

G|-----------------------------------8--8-8--------------------------------------------|
D|--6-6----------6--6-6----------------------------------------------------------------|
A|-------6--4-4-----------7--7-7------------4--4-4---6--6-6---7--7-7-------------------|
E|----------------------------------------------------------------------------6--6-6---|

Verse

G|-------------------------------8--8-8--|---------------------------------------------|
D|-----------6--6-6----------------------|---------------------------------------------|
A|-4--4-4-------------7--7-7-----------|---4--4-4---6--6-6---7--7-7--------------------|
E|-----------------------------------------|----------------------------------6--6-6---|

Repeated (first section- only)

G|-----------------------------------------------------------------------------|
D|-----------------------------------------------------------------------------|
A|-9--9-9----9--9-9---7--7-7----7--7-7/6---------------------------------------|
E|-----------------------------------------------------------------------------|

Repeat Verse

Chorus

G|-----------------------------------------------------------------------------|
D|-----------------------------------------------------------------------------|
A|-9-9-9-9-9---9-----7-7-7-7-7---7-----11-11-11-11-11----11--------------------|
E|--------------9---9---------------7---7----------------------11----11--------|

G|--------------------------------------------------------------------------------------|
D|--------------------------------------------------------------------------------------|
A|-9--9--9--9-----9-9-9-9-9---9-----7-7-7-7-7---7-----11-11-11-11-11----11--------------|
E|---9--9--9---9---------------9---9---------------7---7-----------------------11---11--|

       Riff 1                              Riff 2
G|-------------------------|----------------------------------------------------|
D|-------------------------|----------------------------------------------------|
A|-9-9-9---9-11-9------|--11-11-11-11-11-11-11-11-------------------------------|
E|---------9---------9----|-----------------------------------------------------|

Play twice (first time through play riff 1, second time play riff 2)

Play Intro, Verse then Chorus again


Solo (This was taken off Lostprophit) it sounds a bit off, but I couldn’t do any better.

|---------------------------------8-8-8----------------------------------------|
|-7-6-----------6-6-6----------------------------------------------------------|
|-------7-4-4-----------7-7-7-----------4-4-4---6-6-6---7-7-7------------------|
|----------------------------------------------------------------------6-6-6---|

|--------------------------8~----------------|
|---------6-6-6------------------------------|
|-4-4-4----------7-7-7-----------------------|
|--------------------------------------------|

|-------------------------8-8-8-------------------------------------------|
|---------6-6-6-----------------------------------------------6-6-6-------|
|-4-4-4----------7-7-7-------------4-4-4--6-6-6--7-7-7--------------------|
|-------------------------------------------------------------------------| x3

|-------------------------------8-8-8---------------------------------------|
|-------------6-6-6---------------------------------------------------------|
|-4-4-4---------------7-7-7---------------4-4-4--6-6-6--7-7-7---------------|
|-------------------------------------------------------------------6-6-6---|

|---------------------------------8-8-------------------------------------------------|
|----------6-6-6-------6---6-------------6--------------------------------------------|
|-4-4-4-----------6h7----7-------------6-----4-4-6-6-6-----6-7-7----7-----------------|
|-----------------------------------------------------------------9---------9---4-4---|

|--------------------------------------13-13-13--------|
|-11-11-11-13-13-13-14-14-14---------------------------|
|------------------------------------------------------|
|------------------------------------------------------|

|------------------------------------------------------------|
|-11-11-11-9-9-9-7-7-7-6-6-6---------------------------------|
|------------------------------------4-4~----4/6\0-----------|
|------------------------------------------------------------|

======================================================================================================


I never came (E A D G)

Intro and verse.

G|-----------------------------------------------------------------------------|
D|-----------------------------------------------------------------------------|
A|--7--7/4---4----2h4--4/5---5/7-----------------------------------------------|
E|--(0)------------------------------------3---3h5-----------------------------|

The 7 is played on the first time only then it switches to 0.

Chorus

G|-----------------------------------------------------------------------------|
D|-----------------------------------------------------------------------------|
A|---------------------3-3-3-3-3-3-3-3-----------------------------------------|
E|-0-0-0-0-0-0-0-0---------------------5-5-5-5-5-5-5-5-------------------------|

G|------------------------------------------------------------------------|
D|------------------------------------------------------------------------|
A|-----------------------------------------3-3-3-3-3-3-3-3----------------|
E|-0-0-0-0-0-0-0-0-0-0-0-0-0-0-0-0-------------------------5-5-5-5-5-5-5--|

Solo

G|------------------------------------------------------------------------------|
D|------------------------------------------------------------------------------|
A|----10/4--12/5--14/2--0----repeated-------------------------------------------|
E|-0----------------------------------------------------------------------------|

Play Verse then chorus (with added repeats) then Solo

Outro

G|-----------------------------------------------------------------------------|
D|-----------------------------------------------------------------------------|
A|---10/4-4-4-4-4-4-4-5-5-5-5-5-5-5-5------------------------------------------|
E|-0------------------------------------------3-3-3-3-3-3-3-3------------------|


Someone’s in the wolf  ( D G C F) down 2 steps

Intro

G|-----------------------------------------------------------------------------|
D|-----------------------------------------------------------------------------|
A|-6-0-0-6-0-0-6-0-6-0-6-0-0--6-0-0-6-0-0-6-0-6-0-6-0-0------------------------|
E|-----------------------------------------------------------------------------|

G|----------------------------------------------------------------------------------|
D|-7-7-7-7--8--8--9-9-9-9--13--13--7-7-7-7--8--8--9-9-9-9--13--13-------------------|
A|----------------------------------------------------------------------------------|
E|----------------------------------------------------------------------------------|

G|--------------------------------------------------------------------------|
D|-7-7-7-7-8-8-8-8-9-9-9-9-13-13-13-13-7-7-7-7-8-8-8-8-9-9-9-9-13-13-13-13--|
A|--------------------------------------------------------------------------|
E|--------------------------------------------------------------------------|

Verse

G|---------------------------------------------------------------------------------|
D|-----------13-----------------13----------------13-------13-13-13-11----11-13----|
A|0-0-0-0------12--0-0-0-0------12--0-0-0-0-----12-------------------12--------12--|
E|---------------------------------------------------------------------------------|

G|--------12-14-14-----------------------------------------------------------------13-14--|
D|-----13------------------13-13-13-13-11--13-13-13-13-11--13-13-13-11---------13-11------|
A|-12-----------------12------------------------------------------------------------------|
E|----------------------------------------------------------------------------------------|


G|-----------------------------------------------------------------------------|
D|-----------------------------------------------------------------------------|
A|-----------------------------------------------------------------------------|
E|-17/19---15/12---15p0-0--12p0-0--11p0-0--9p0-0-------------------------------|

Just repeat a few of these throughout the song and you’ll be alright.

Bridge

G|-----------------------------------------------------------------------------|
D|-----------------------------------------------------------------------------|
A|-0----------0--------0---------0--------0-------0--------0----------0--------|
E|-----------------------------------------------------------------------------|


The Blood is Love (E A D G)

Intro

G|---------------------------------------------------------------------|
D|---------------------------------------------------------------------|
A|---14-14----14-14----14-14---14-14----13-13---13-13---13-13---13-13--|
E|-0-------0--------0-------0---------0-------0-------0-------0--------|


G|------------------------------------------------------------------|
D|------------------------------------------------------------------|
A|---16-16---16-16---16-16---16-16---14-14---14-14---14-14---14-14--|
E|-0-------0-------0--------0------0-------0-------0-------0--------|

G|---------------------------------------------------------------------------------------|
D|---------------------------------------------------------------------------------------|
A|--11-11---11-11---11-11---11-11---10-10---10-10---10-10---10-10------------------------|
E|-0------0-------0-------0-------0-------0-------0-------0------------------------------|

G|---------------------------------------------------------------------------------------|
D|---------------------------------------------------------------------------------------|
A|--9-9---9-9---9-9---9-9---7-7---7-7---7-7---7-7---7-7---7-7---7-7---7-7----------------|
E|-0----0-----0-----0-----0-----0-----0-----0-----0-----0-----0-----0--------------------|

G|----------------------------------------------------------------------------------|
D|----------------------------------------------------------------------------------|
A|---10-10------10-10------10-10-----10-10-------9-9------9-9------9-9------9-9-----|
E|-0-------0-0-------0-0---------0-0--------0-0-------0-0------0-0------0-0------0--|


G|--------------------------------------------------------------------------|
D|--------------------------------------------------------------------------|
A|---5-5------5-5------5-5------5-5------4-4------2-2------4-4------2-2-----|
E|-0-----0-0------0-0------0-0------0-0------0-0------0-0------0-0-------0--|


G|-------------------------------------------------------------------------|
D|-------------------------------------------------------------------------|
A|---3-3------3-3------3-3------3-3------1-1------1-1------1-1------1-1----|
E|-0-----0-0------0-0------0-0------0-0------0-0------0-0------0-0------0--|

The Bridge/chorus is the same as the intro.


Skin on Skin (E A D G)

The whole song is just this riff.

G|-----------------------------------------------------------------------------|
D|-----------------------------------------------------------------------------|
A|-----------------------------------------------------------------------------|
E|-4---5---6---5----------4--5--6--4-------------------------------------------|


Broken Box

Intro

G|-----------------------------------------------------------------------|
D|-----------------------------------------------------------------------|
A|-----------------------------------------------------------------------|
E|-3-5-5-5--3-5-5-5--3-5-5-5--3-5-5-5--3-5-5-5--3-5-5-5--3-5-5-5--3-5-5--|

Verse

G|-------------------------------------------------------------------------|
D|-------------------------------------------------------------------------|
A|-------------------------------------------------------------------------|
E|-3-5-5-5--3-5-5-5--3-5-5-5--3-5-5-5--3-5-5-5--3-5-5-5--3-5-5-5--3-5-5-5--|

G|---------------------------------------------------------------------------------|
D|---------------------------------------------------------------------------------|
A|-3-5-5-5--3-5-5-5--3-5-5-5--3-5-5-5----------------------------------------------|
E|---------------------------------------------3-5-5-5--3-5-5-5--3-5-5-5--3-5-5-5--|


G|--------------------------------------------------------------------------------|
D|--------------------------------------------------------------------------------|
A|--------------------------------------------1-3-3-3--1-3-3-3--1-3-3-3--1-3-3-3--|
E|-3-5-5-5--3-5-5-5--3-5-5-5--3-5-5-5---------------------------------------------|

G|-----------------------------------------------------------------------------|
D|-----------------------------------------------------------------------------|
A|-----------------------------------------------------------------------------|
E|-3-5-5-5--3-5-5-5--3-5-5-5--3-5-5-5------------------------------------------|

Chorus

G|---------------------------------------------------------------------|
D|---------------------------------------------------------------------|
A|-10-12-12-12--10-12-12-12--8-10-10-10--8-10-10-10--3-5-5-5--3-5-5-5--|
E|---------------------------------------------------------------------|

G|-----------------------------------------------------------------------|
D|-----------------------------------------------------------------------|
A|-3-5-5-5--3-5-5-5----10-12-12-12--10-12-12-12--8-10-10-10--8-10-10-10--|
E|-----------------------------------------------------------------------|

G|---------------------------------------------------------------------------------------------|
D|---------------------------------------------------------------------------------8-10-10-10--|
A|-3-5-5-5--3-5-5-5--3-5-5-5--3-5-5-5----10-12-12-12--10-12-12-12------------------------------|
E|---------------------------------------------------------------------------------------------|

G|-----------------------------------------------------------------------------|
D|-8-10-10-10------------------------------------------------------------------|
A|-------------------------------------------------3-5-5-5---------------------|
E|-----------------1-3-3-3--1-3-3-3--1-3-3-3-----------------------------------|

Bridge

G|-----------------------------------------------------------------------------------|
D|-----------------------------------------------------------------------------------|
A|--------------------------------------------5-5-5-5-4-4-4-4-3-3-3-3----------------|
E|-3-5-5-5--3-5-5-5--3-5-5-5--3-5-5-5-------------------------------3-3-3-3-5-5-5-5--|

G|---------------------------------------------|
D|---------------------5-----------------------|
A|---------------5--7----7--5--7--5------------|
E|--5-5-5-5--5---------------------------------|

Played 3 times

G|-----------------------------------------------------------------------------|
D|-----------------------------------------------------------------------------|
A|-5-5-5-5-4-4-4-4-3-3-3-3-----------------------------------------------------|
E|-------------------------------3---------------------------------------------|

Repeat Verse, Chorus and Bridge

“You got a killer scene there, man…”

G|-----------------------------------------------------------------------------|
D|-----------------------------------------------------------------------------|
A|-----------------------------------------------------------------------------|
E|-0---0--0----0-0------0--0----0----0-0----0----0----0-0-----0----------------|

Basically the whole song, just throw a couple of these in every so often

G|-----------------------------------------------------------------------------|
D|-----------------------------------------------------------------------------|
A|-----------------------------------------------------------------------------|
E|-0---3--5---7--5-------------------------------------------------------------|

Long Slow Goodbye

Verse

G|-----------------------------------------------------------------------------|
D|-----------------------------------------------------------------------------|
A|-----------------------------------------------------------------------------|
E|-0-0-0-0-0-0-0-0-0-0-0-0-0--5/6-6p5 3----------------------------------------|

G|---------------------------------------------------------------------------------|
D|---------------------------------------------------------------------------------|
A|-----------------------5-5-5-5-5-5-5-5-------------------------------------------|
E|-3-3-3-3-3-3-3-3-3---------------------0-0-0-0-0-0-0-0-0-5/6-6p5 3---------------|

Chorus

G|---------------------------------------------------------------------------------|
D|---------------------------------------------------------------------------------|
A|-3-3-3-3-3-3-3-3-3-5-5-5-5-5-5-5-5-----------------------------------------------|
E|--------------------------------------------0-0-0-0-0-0-0-0-0-0-0-0-0-0----------|

Repeat as needed

Like a drug

Verse

G|-----------------------------------------------------------------------------|
D|-----------------------------------------------------------------------------|
A|-----------------------------------------------------------------------------|
E|-5--5---0--3----5---5---0----3---5--5--0---3---5---5---0--3------------------|

G|-----------------------------------------------------------------------------|
D|-2-----2--2--0---------------------------------------------------------------|
A|-------------------3---------------------------------------------------------|
E|-------------------------5--5---0---3----------------------------------------|

Chorus

G|-----------------------------------------------------------------------------|
D|-----------------------------------------------------------------------------|
A|-5---5---0---3----5---5---0---3----------------------------------------------|
E|-----------------------------------------------------------------------------|


Precious and Grace

G|-----------------------------------------------------------------------------|
D|-----------------------------------------------------------------------------|
A|-----------------------------------------------------------------------------|
E|-1h3--1h3---3/6--3p1----1h3--1h3--3/6---3p1----------------------------------|

G|-----------------------------------------------------------------------------|
D|-----------------------------------------------------------------------------|
A|-----------------------------------------------------------------------------|
E|-6p8--6p8--8/11--8p6---6p8--6p8--8/11--8p6-----------------------------------|

G|-----------------------------------------------------------------------------|
D|-----------------------------------------------------------------------------|
A|-5-5-5-5-5-5-5-5-5-5-5-5-----------------------------------------------------|
E|-----------------------------------------------------------------------------|

Repeat Verse

Bridge

G|-----------------------------------------------------------------------------|
D|-----------------------0----------------------0------------------------------|
A|-----------------------------------------------------------------------------|
E|-3-2-1-3-2-1-3-2-1---3-2-1-3-2-1-3-2-1---------------------------------------|

G|--------------------------------------------------------------------|
D|--------------------------------------------------------------------|
A|--------------------------------------------------------------------|
E|-0h1---0h1---0h1---0h1----7h8--7h8---7h8---7h8---5h6--5h6--7h8-7h8--|

G|-----------------------------------------------------------------------------|
D|-----------------------------------------------------------------------------|
A|-----------------------------------------------------------------------------|
E|-10---8----6---5-----10---8---6---5------------------------------------------|

Solo

G|-----------------------------------------------------------------------------|
D|-----------------------------------------------------------------------------|
A|-----------------------------------------------------------------------------|
E|-1-3-3-3-1-3-3-3-1-3-3-3-3-3-3-3---------------------------------------------|

Outro

G|---------------------------------------------------------------------------|
D|---------------------------------------------------------------------------|
A|-5--5-5--5-5-5-5---4--4-4--4-4-4-4--3--3-3--3-3-3-3---2--------------------|
E|-----------------------------------------------------------------------3---|


| /  slide up
| \  slide down
| h  hammer-on
| p  pull-off
| ~  vibrato
| +  harmonic
| x  Mute note
===============================================================================
comments
print report bad tab
5 comments total. Showing first comments.
0 reply
thisnamebecool wrote on December 4 2006, 10:36 pm

Little sister is very wrong and the intro to in my head ain't too hot either.

0 reply
Kal Zakath wrote on December 6 2006, 11:28 am

yeah sorry about that, the tab is right and it's not really my fault.
when I sent the tab in, the text moved so some parts got moved further along a line screwing it up.

0 reply
jimmy, the one wrote on July 5 2007, 09:48 pm

looks ok, you should mark out the songs better, so lazy people like me dont have to squint :)

I want to post or [tab]
guest
You may want to rate the tab now too:
select rating
Please do not post tabs as comments. Select "correction" instead!