Oops, an error
Loading. Please wait.

Lullabies To Paralyze Tab

33,470 views 48 this week
5 commentsread comments
1 2 3 4 5
excellent!
x 5
Autoscroll
+/-
esc
set tempo
stop
Contributor
Hey! There's an official Ultimate Guitar app which is ideal
for learning songs when you're away from computer. Get the app
WARNING: You are trying to view
                                    content from Ultimate-Guitar.com
                                    in an unauthorized application,
                                    which is prohibited.

                                    Please use an official Ultimate
                                    Guitar Tabs application for iPhone,
                                    iPad or Android to access legitimate
                                    chords, guitar, bass, and drum tabs
                                    from Ultimate-Guitar.com database.

                                    Type "ultimate guitar tabs" in Apple
                                    App Store's or Android Market's
                                    search to find the application.
Just a collection of the best tabs of the songs from the album!

THIS LULLABY transcribed by GasPanic

Gtr I (E A D G B E) - 'Untitled'

   Intro
    
  
    EM
||-----------|-----------||-^7-------|-(7)----||
||o-------8--|-------8--o||-^8-------|-(8)----||
||-----9-----|----9------||-^9-------|-(9)----||
||-----------|-9---------||-^9-------|-(9)----||
||o-7--------|----------o||-^7-------|-(7)----||
||-----------|-----------||----------|--------||


   Verse
    
    Em                    B
   
||-----------|----------|----------|-----------|
||o-------8--|-------8--|----------|-----------|
||-----9-----|----9-----|-------8--|-------8---|
||-----------|-9--------|----9-----|----9------|
||o-7--------|----------|----------|-9---------|
||-----------|----------|-7--------|-----------|


  B                      Em
 
|----------|-----------|----------|-----------||
|----------|-----------|-------8--|-------8--o||
|-------8--|-----------|----9-----|----9------||
|----9-----|----9------|----------|-9---------||
|----------|-9-----10--|-7--------|----------o||
|-7--------|-----------|----------|-----------||


 Bridge
  G                           D
   
|-------------|-------------|-------------|-------------|
|---------12--|---------12--|-------------|-------------|
|-----12------|-----12------|---------11--|---------11--|
|-------------|-12----------|-----12------|-----12------|
|-10----------|-------------|-------------|-12----------|
|-------------|-------------|-10----------|-------------|


                                   To Coda
  C                         Em
  
|-----------|-------------|----------|-7------||
|-----------|-------------|----------|--------||
|--------9--|-------------|-------8--|--------||
|----10-----|-----10------|----9-----|--------||
|-----------|-10----------|----------|--------||
|-8---------|---------10--|-7--------|--------||


 End Verse
  Em
 
|----------|----------|----------|-----------|
|-------8--|-------8--|-------8--|-----------|
|----9-----|----9-----|----9-----|----9------|
|----------|-9--------|----------|-9---------|
|-7--------|----------|-7--------|-------10--|
|----------|----------|----------|-----------|


                           Coda
  Em
|----------|-7--------|-12-------|-(12)-----||
|-------8--|----8-----|----------|----------||
|----9-----|----------|----------|----------||
|----------|----------|----------|----------||
|-7--------|-------7--|--7-------|--(7)-----||
|----------|----------|----------|----------||


 Outro
  
  Em
|----------|----------|----------|----------|
|-------8--|-------8--|----------|----------|
|----9-----|----9-----|-------8--|-------8--|
|----------|-9--------|----9-----|----9-----|
|-7--------|----------|----------|-9--------|
|----------|----------|-7--------|----------|


  Em
 
|----------|----------|-12-------|-(12)----*|
|-------8--|-------8--|----------|---------*|
|----9-----|----9-----|----------|---------*|
|----------|-9--------|----------|---------*|
|-7--------|----------|--7-------|--(7)----*|
|----------|----------|----------|---------*|

MEDICATION transcribed by Jori Apedaile, apedailejw@gaggle.net

NOTE: To get a tone that sounds like Queens of the Stone Age, I would recommend using 
pickup closest to the neck, turning your tone knob down all the way, and having a 
amplifier.

Intro
e-6___________________-
B----------------------|
G----------------------|  hold for 16 beats while the bass does its little
D----------------------|  part.
A----------------------|
E----------------------|

-------------------|
-------------------|
-------------------|
-------------------|  immediately to verse
-6-8-6-8-6-8-6-8-6-|
-4-6-4-6-4-6-4-6-4-|

Verse
-----------------------------------------------------------------|
-----------------------------------------------------------------|
-----------------------------------------------------------------|
-----------------------------------------------------------------|
-8-8-8-8-8-8-8-8-8-8-8-8-8-8-8-8-8-8-8-8-8-8-8-8-8-8-8-8-8-8-8-8-|
-6-6-6-6-6-6-6-6-6-6-6-6-6-6-6-6-6-6-6-6-6-6-6-6-6-6-6-6-6-6-6-6-|

-----------------------------------------|
-----------------------------------------|
-----------------------------------------|
-------6-6---------9---------------------| Immediately to Verse 2
-4-4---4-4---6-6---7---6-8-6-8-6-8-6-8-6-|
-2-2---------4-4---7---4-6-4-6-4-6-4-6-4-|

---------------------------------------------------------------|
---------------------------------------------------------------|
---------------------------------------------------------------|
---------------------------------------------------------------|
-8-8-8-8-8-8-8-8-8-8-8-8-8-8-8-8-8-8-8-8-8-8-8-8-8-8-8-8-8-8-8-|
-6-6-6-6-6-6-6-6-6-6-6-6-6-6-6-6-6-6-6-6-6-6-6-6-6-6-6-6-6-6-6-|

-----------------------------------------|
-----------------------------------------|
-----------------------------------------|
-------6-6---------9---------------------| Immediately to Verse 3
-4-4---4-4---6-6---7---6-8-6-8-6-8-6-8-6-|
-2-2---------4-4---7---4-6-4-6-4-6-4-6-4-|

-------------P-------------P-------------------------------P-|
-------------A-------------A-------------------------------A-|
-------------U-------------U-------------------------------U-|
-------------S-------------S-------------------------------S-|
-8-8-8-8-8-8-E-8-8-8-8-8-8-E-8-8-8-8-8-8-8-8-8-8-8-8-8-8-8-E-|
-6-6-6-6-6-6---6-6-6-6-6-6---6-6-6-6-6-6-6-6-6-6-6-6-6-6-6---|

-----------------------------------------------------------------|
-----------------------------------------------------------------|
-----------------------------------------------------------------|
-----------------------------------------------------------------|
-8-8-8-8-8-8-8-8-8-8-8-8-8-8-8-8-8-8-8-8-8-8-8-8-8-8-8-8-8-8-8-8-|
-6-6-6-6-6-6-6-6-6-6-6-6-6-6-6-6-6-6-6-6-6-6-6-6-6-6-6-6-6-6-6-6-|

-----------------------------------------|
-----------------------------------------|
-----------------------------------------|
-------6-6---------9---------------------| Immediately repeat verse 2
-4-4---4-4---6-6---7---6-8-6-8-6-8-6-8-6-|
-2-2---------4-4---7---4-6-4-6-4-6-4-6-4-|

EVERYBODY KNOWS THE YOU ARE INSANE transcribed by tylersugarcarlo

Intro/Verse Rhythm (Clean)
       A sh     A mj   F sh  D sh   
   |--------------------------------|
   |------7-------6------3----------|
   |--------7-------6-----3----4----|
   |----7----7---6---6--3--3----5---|
   |---5--------4------1------5--5--|
   |-------------------------3------|

Slide Lead Intro
|-----------------------------------|
|-----------------------------------|
|-7/10\7~---6\7/6-----------/12~----|
|--------------------2\3~-3\--------|
|-----------------------------------|
|-----------------------------------|

     Intro Rhythm Cont.
        A sh   C mj   C sh      C sh  
     |-------------------------------------|
     |----7------9-------10--------10------|
     |-----7------9--------10--------10----|
     |---7--7---9--9---10----10--10----10--|
     |--5------7------8---------8----------|
     |-------------------------------------|

Slide Lead Cont.
|-----------------------------|
|-13/15\10---10/12~---12/14~--|
|-----------------------------|
|-----------------------------|
|-----------------------------|
|-----------------------------|

    Intro Rhythm Cont.
        A sh     A mj   F sh  D sh   
    |--------------------------------|
    |------7-------6------3----------|
    |--------7-------6-----3----4----|
    |----7----7---6---6--3--3----5---|
    |---5--------4------1------5--5--|
    |-------------------------3------|

Slide Lead Cont.
|-10/13\10~--10/15~--15/17~--18~--|
|---------------------------------|
|---------------------------------|
|---------------------------------|
|---------------------------------|
|---------------------------------|

Intro Rhythm Cont.
        A sh   C mj   C sh      C sh  
     |-------------------------------------|
     |----7------9-------10--------10------|
     |-----7------9--------10--------10----|
     |---7--7---9--9---10----10--10----10--|
     |--5------7------8---------8----------|
     |-------------------------------------|

Slide Lead Cont.
|-13/16\13--/16---/22-/22\21\14~--14/16\14\9~~~--|
|------------------------------------------------|
|------------------------------------------------|
|------------------------------------------------|
|------------------------------------------------|
|------------------------------------------------|

Verse (same picking pattern as above)
A sh       A mj          F sh    D sh
  You Otta Know  Why You Feel So Hollow 

                                   Slide Lead 
                                   |-------------|
                                   |-10/15~\10~--|
                                   |-------------|
                                   |-------------|
                                   |-------------|
                                   |-------------|

A sh        A mj         F sh    D sh  (carry out the "are")
  Cause You Are------------------------      
                                          Slide
                                          |-10/13~\10~--|
                                          |-------------|
                                          |-------------|
                                          |-------------|
                                          |-------------|
                                          |-------------|

A sh             A mj      F sh   D sh       
  You're Missing Out  Well If You Say So
               Slide
               |-/15-------------------13/17~\13~~---|
               |-------------------------------------|
               |-------------------------------------| 
               |-------------------------------------|
               |-------------------------------------|
               |-------------------------------------|
       A sh                  A mj          D sh 
         When You're Missing Out-------------
Slide
|-13/16\13~~--------------------------/17~/19~/20/22~~~--|
|--------------------------------------------------------|
|--------------------------------------------------------|
|--------------------------------------------------------|
|--------------------------------------------------------|
|--------------------------------------------------------|

Chorus (Heavy Distorion)
  Everybody---------------- Knows That  You're  In-
|---------------------------------------------------|
|---------------------------------------------------|
|-7-7-7-7-7-7-7-7-7-7-7-7-7-6-6-6-6-6-6-3-3-3-3-3-3-|
|-7-7-7-7-7-7-7-7-7-7-7-7-7-6-6-6-6-6-6-3-3-3-3-3-3-|
|-5-5-5-5-5-5-5-5-5-5-5-5-5-4-4-4-4-4-4-1-1-1-1-1-1-|
|---------------------------------------------------|
-Sane
|------------------------------------------------------|
|------------------------------------------------------|
|-----------7-------------7-------------7--------------|
|-5-5-5-5-5-7---5-5-5-5-5-7---5-5-5-5-5-7---5-5-5-5-5--|
|-5-5-5-5-5-5---5-5-5-5-5-5---5-5-5-5-5-5---5-5-5-5-5--|
|-3-3-3-3-3-0-0-3-3-3-3-3-0-0-3-3-3-3-3-0-0-3-3-3-3-3--| 2x

2nd Verse (the A sharp and A major have slight distorion)
                    
                  You  Otta  Know                  
|------------------------------------------------------|
|------------------------------------------------------|
|-7-7--7-7-7--7-7-7--7-7-7--7-6-6--6-6-6--6-6-6--6-6-6-|
|-7-7--7-7-7--7-7-7--7-7-7--7-6-6--6-6-6--6-6-6--6-6-6-|
|-5-5--5-5-5--5-5-5--5-5-5--5-4-4--4-4-4--4-4-4--4-4-4-|
|------------------------------------------------------|

(the F sharp and the D sharp are heavily distorted)

Just   How Long  You Can    Hide From--------
  |-------------------------------------------------|
  |-------------------------------------------------|
  |-----------------------------------------------5-|
  |-8-8-8-8-8-8-8-8-8-8-8-8-5-5-5-5-5-5-5-5-5-5-5-5-|
  |-8-8-8-8-8-8-8-8-8-8-8-8-5-5-5-5-5-5-5-5-5-5-5-7-|
  |-6-6-6-6-6-6-6-6-6-6-6-6-3-3-3-3-3-3-3-3-3-3-3---| 

          What You Are---------------------------------
|------------------------------------------------------|
|------------------------------------------------------|
|-7-7--7-7-7--7-7-7--7-7-7--7-9-9--9-9-9--9-9-9--9-9-9-|
|-7-7--7-7-7--7-7-7--7-7-7--7-9-9--9-9-9--9-9-9--9-9-9-|
|-5-5--5-5-5--5-5-5--5-5-5--5-7-7--7-7-7--7-7-7--7-7-7-|
|------------------------------------------------------|  

              Not Very Long
|-------------------------------------------------|
|-------------------------------------------------|
|-------------------------------------------------|
|-8-8-8-8-8-8-8-8-8-8-8-8-8-8-8-8-8-8-8-8-8-8-8-8-|
|-8-8-8-8-8-8-8-8-8-8-8-8-8-8-8-8-8-8-8-8-8-8-8-8-|
|-6-6-6-6-6-6-6-6-6-6-6-6-6-6-6-6-6-6-6-6-6-6-6-6-|

                  I Have Been Lost
|------------------------------------------------------|
|------------------------------------------------------|
|-7-7--7-7-7--7-7-7--7-7-7--7-6-6--6-6-6--6-6-6--6-6-6-|
|-7-7--7-7-7--7-7-7--7-7-7--7-6-6--6-6-6--6-6-6--6-6-6-|
|-5-5--5-5-5--5-5-5--5-5-5--5-4-4--4-4-4--4-4-4--4-4-4-|
|------------------------------------------------------|

Down Every--- Road I've   Followed
|-------------------------------------------------|
|-------------------------------------------------|
|-------------------------------------------------|
|-8-8-8-8-8-8-8-8-8-8-8-8-5-5-5-5-5-5-5-5-5-5-5-5-|
|-8-8-8-8-8-8-8-8-8-8-8-8-5-5-5-5-5-5-5-5-5-5-5-5-|
|-6-6-6-6-6-6-6-6-6-6-6-6-3-3-3-3-3-3-3-3-3-3-3-3-|

                   Out in the Dark----------------
|------------------------------------------------------|
|------------------------------------------------------|
|-7-7--7-7-7--7-7-7--7-7-7--7-9-9--9-9-9--9-9-9--9-9-9-|
|-7-7--7-7-7--7-7-7--7-7-7--7-9-9--9-9-9--9-9-9--9-9-9-|
|-5-5--5-5-5--5-5-5--5-5-5--5-7-7--7-7-7--7-7-7--7-7-7-|
|------------------------------------------------------| 
      On My Way Home
|--------------------------------------------------------------------------|
|--------------------------------------------------------------------------|
|-----------------------------------7------------7------------7------------|
|-8-8-8-8-8-8-8-8-8-8-8-8-5-5-5-5-5-7--5-5-5-5-5-7--5-5-5-5-5-7--5-5-5-5-5-|
|-8-8-8-8-8-8-8-8-8-8-8-8-5-5-5-5-5-5--5-5-5-5-5-5--5-5-5-5-5-5--5-5-5-5-5-|
|-6-6-6-6-6-6-6-6-6-6-6-6-3-3-3-3-3--0-3-3-3-3-3--0-3-3-3-3-3--0-3-3-3-3-3-|

Chorus (Heavy Distorion)
  Everybody---------------- Knows That  You're  In-
|---------------------------------------------------|
|---------------------------------------------------|
|-7-7-7-7-7-7-7-7-7-7-7-7-7-6-6-6-6-6-6-3-3-3-3-3-3-|
|-7-7-7-7-7-7-7-7-7-7-7-7-7-6-6-6-6-6-6-3-3-3-3-3-3-|
|-5-5-5-5-5-5-5-5-5-5-5-5-5-4-4-4-4-4-4-1-1-1-1-1-1-|
|---------------------------------------------------|
-Sane
|------------------------------------------------------|
|------------------------------------------------------|
|-----------7-------------7-------------7--------------|
|-5-5-5-5-5-7---5-5-5-5-5-7---5-5-5-5-5-7---5-5-5-5-5--|
|-5-5-5-5-5-5---5-5-5-5-5-5---5-5-5-5-5-5---5-5-5-5-5--|
|-3-3-3-3-3-0-0-3-3-3-3-3-0-0-3-3-3-3-3-0-0-3-3-3-3-3--| 3x

  Everybody---------------- Knows That  You're  In-
|---------------------------------------------------|
|---------------------------------------------------|
|-7-7-7-7-7-7-7-7-7-7-7-7-7-9-9-9-9-9-9-3-3-3-3-3-3-|
|-7-7-7-7-7-7-7-7-7-7-7-7-7-9-9-9-9-9-9-3-3-3-3-3-3-|
|-5-5-5-5-5-5-5-5-5-5-5-5-5-7-7-7-7-7-7-1-1-1-1-1-1-|
|---------------------------------------------------|
-Sane
|------------------------------------------------------|
|------------------------------------------------------|
|-----------7-------------7-------------7--------------|
|-5-5-5-5-5-7---5-5-5-5-5-7---5-5-5-5-5-7---5-5-5-5-5--|
|-5-5-5-5-5-5---5-5-5-5-5-5---5-5-5-5-5-5---5-5-5-5-5--|
|-3-3-3-3-3-0-0-3-3-3-3-3-0-0-3-3-3-3-3-0-0-3-3-3-3-3--| 1x

Chorus Lead

  Everybody------------------- Knows   That     You're        In-   
|-----------------------------------------------------------------|
|-----------------------------------------------------------------|
|-7777-9999-10101010-12121212-13131313-12121212-10101010-12121212-|
|-----------------------------------------------------------------|
|-----------------------------------------------------------------|
|-----------------------------------------------------------------|
  Sane
|-------------------------------------------|
|-------------------------------------------|
|-77777777h9p77777777h9p77777777h9p77777777-|
|-------------------------------------------|
|-------------------------------------------|
|-------------------------------------------| 3x

  Everybody------------------ Knows That    You're        In-   
|-------------------------------------------------------------|
|-------------------------------------------------------------|
|-7777-9999-10101010-12121212-9999-10101010-12121212-13131313-|
|-------------------------------------------------------------|
|-------------------------------------------------------------|
|-------------------------------------------------------------|
  Sane
|-------------------------------------------|
|-------------------------------------------|
|-77777777h9p77777777h9p77777777h9p77777777-|
|-------------------------------------------|
|-------------------------------------------|
|-------------------------------------------| 1x

Bridge

Rhythm
|-----------------------------------------------|
|-----------------------------------------------|
|-3-3---3-3---3-3---3-3---7-7---7-7---5-5---5-5-|
|-3-3---3-3---3-3---3-3---7-7---7-7---5-5---5-5-|
|-1-1---1-1---1-1---1-1---5-5---5-5---3-3---3-3-|
|-----0-----0-----0-----0-----0-----0-----0-----|4x

Solo (oh boy, this could be pretty rough)
|-----------------------------------------8h10p8------12~-|
|-----------------------------------------------10p8------|
|-7^-5h7-7--5h7-7p5-7/9-9~--10--12^12^-10-----------9-----|
|--------------7------------------------------------------|
|---------------------------------------------------------|
|---------------------------------------------------------| 

|-13^13^-10---10-17--------------------------------------|
|------------------18-15-17------15----------------------|
|--------------------------17-14----14-10-(14-10-12)-7~--|
|--------------------------------------------------------|
|--------------------------------------------------------|
|--------------------------------------------------------|

  And I Feel Noth-ing - Am I Better Yet
|-------------------------------------------------| 
|-------------------------------------------------| 
|-3-3-3-3-3-3-3-3-3-3-3-3-7-7-7-7-7-7-5-5-5-5-5-5-|                         
|-3-3-3-3-3-3-3-3-3-3-3-3-7-7-7-7-7-7-5-5-5-5-5-5-|
|-1-1-1-1-1-1-1-1-1-1-1-1-5-5-5-5-5-5-3-3-3-3-3-3-|
|-------------------------------------------------| 3x

  And I Feel Noth--ing Am I Better Yet 
|--------------------------------------------------|
|--------------------------------------------------|
|-3-3-3-3-3-3-3-3-3-3-3-3-----------7--------------|
|-3-3-3-3-3-3-3-3-3-3-3-3-5-5-5-5-5-7--5-5-5-5-5---|
|-1-1-1-1-1-1-1-1-1-1-1-1-5-5-5-5-5-5--5-5-5-5-5---|
|-------------------------3-3-3-3-3--0-3-3-3-3-3---| 1x

Chorus (Heavy Distorion)
  Everybody---------------- Knows That  You're  In-
|---------------------------------------------------|
|---------------------------------------------------|
|-7-7-7-7-7-7-7-7-7-7-7-7-7-6-6-6-6-6-6-3-3-3-3-3-3-|
|-7-7-7-7-7-7-7-7-7-7-7-7-7-6-6-6-6-6-6-3-3-3-3-3-3-|
|-5-5-5-5-5-5-5-5-5-5-5-5-5-4-4-4-4-4-4-1-1-1-1-1-1-|
|---------------------------------------------------|
-Sane
|------------------------------------------------------|
|------------------------------------------------------|
|-----------7-------------7-------------7--------------|
|-5-5-5-5-5-7---5-5-5-5-5-7---5-5-5-5-5-7---5-5-5-5-5--|
|-5-5-5-5-5-5---5-5-5-5-5-5---5-5-5-5-5-5---5-5-5-5-5--|
|-3-3-3-3-3-0-0-3-3-3-3-3-0-0-3-3-3-3-3-0-0-3-3-3-3-3--| 4x

Chorus Lead

  Everybody------------------- Knows   That     You're        In-   
|-----------------------------------------------------------------|
|-----------------------------------------------------------------|
|-7777-9999-10101010-12121212-13131313-12121212-10101010-12121212-|
|-----------------------------------------------------------------|
|-----------------------------------------------------------------|
|-----------------------------------------------------------------|
  Sane
|-------------------------------------------|
|-------------------------------------------|
|-77777777h9p77777777h9p77777777h9p77777777-|
|-------------------------------------------|
|-------------------------------------------|
|-------------------------------------------| 3x

  Everybody------------------ Knows That    You're        In-   
|-------------------------------------------------------------|
|-------------------------------------------------------------|
|-7777-9999-10101010-12121212-9999-10101010-12121212-13131313-|
|-------------------------------------------------------------|
|-------------------------------------------------------------|
|-------------------------------------------------------------|
  Sane
|-------------------------------------------|
|-------------------------------------------|
|-77777777h9p77777777h9p77777777h9p77777777-|
|-------------------------------------------|
|-------------------------------------------|
|-------------------------------------------| 1x

TANGLED UP IN PLAID transcribed by tylersugarcarlo

Intro 
Guitar I (this is actually a piano, which returns with the same part right before the 2nd chorus)

|-14-15-14-12-11-12-14-15-12-11-9-11-14-15-14-12-11-12-14-15-14-12-11-12-|
|------------------------------------------------------------------------|
|------------------------------------------------------------------------|
|------------------------------------------------------------------------|
|------------------------------------------------------------------------|
|------------------------------------------------------------------------|

Guitar II (high reverb with slight distortion)
|-14~---------12-14~---15-12~--------12-17~------19-14~---12-11-12--20~--|
|------------------------------------------------------------------------|
|------------------------------------------------------------------------|
|------------------------------------------------------------------------|
|------------------------------------------------------------------------|
|------------------------------------------------------------------------|

Guitar I Cont.
|-14-15-14-----|
|--------------|
|----------9~--|
|----------9~--|
|----------7~--|
|--------------|

Guitar II Cont.
|----------14~-|
|--------------|
|--------------|
|--------------|
|--------------|
|--------------|

Verse
Guitar I (medium distortion)
   G                         G sharp 
|-----------------------------------------------------|
|-----------------------------------------------------|
|-----------------------------------------------------|
|-----------------------------------------------------|
|-----------------------------------------------------|
|-/7-7^0-7-7^0-7-7^0h7^0-8--8^0-8^0-8--8--8--8^8^8^0--|
  G                     G sharp       C 
|------------------------------------------|
|------------------------------------------|
|-------------------------------------13~--|
|-------------------------------------14~--|
|-------------------------------------14~--|
|-7-7p0-7^0-7^0-7-0-7-0-8--8^0-8--8^0-12~--|

Guitar II fill
|------------------------------|
|------------------------------|
|-14--12p11/8~~~~-------9~~~~--|
|------------------------------|
|------------------------------|
|------------------------------|

Guitar I Verse
  I Slipped  Didn't Mean, Didn't Mean to Do it That 
|--------------------------------------------------|
|--------------------------------------------------|
|--------------------------------------------------|
|--------------------------------------------------|
|--------------------------------------------------|
|-7-7p0-7^0-7^0-7-0-7-0-8--8^0-8--8^0-8-^0-8p0-8p0-|

 Way  Well I Blew in on a Whim  Gone Tomorrow I'm Gone
|----------------------------------------------------|
|----------------------------------------------------|
|----------------------------------------------------|
|----------------------------------------------------|
|----------------------------------------------------|
|-7-7^0-7-7^0-7-7^0h7^0-8--8^0-8^0-8--8--8--8^8^8^0--|

Guitar II Lead
|-----------11-12--14--19~~~~~--|
|-------------------------------|
|-------------------------------|
|-------------------------------|
|-------------------------------|
|-------------------------------|

 Today      Oh Yeah             Oh Yeah 
|--------------------------------------------------|
|--------------------------------------------------|
|--------------------------------------------------|
|--------------------------------------------------|
|--------------------------------------------------|
|-7-7p0-7^0-7^0-7-0-7-0-8--8^0-8--8^0-8-^0-8p0-8p0-|

Guitar II Lead
|-----------------------------------------------------------|
|-----------------------------------------------------------|
|------------------------------------9^^-11^(harmonic)~~~~~-|
|-----------------------------------------------------------|
|-----------------------------------------------------------|
|-----------------------------------------------------------|

  Whoa-oohwhoa-oohwhoa-yeah                Hangin'
|--------------------------------------------------|
|--------------------------------------------------|
|--------------------------------------------------|
|--------------------------------------------------|
|--------------------------------------------------|
|-7-7p0-7^0-7^0-7-0-7-0-8--8^0-8--8^0-8-^0-8p0-8p0-|

Guitar II
|---------------------------------------14~~~~~~~~-|
|--------------------------------------------------|
|--------------------------------------------------|
|--------------------------------------------------|
|--------------------------------------------------|
|--------------------------------------------------|
  Low            Hangin' Low          Whoa-ooh-oh
|----------------------------------------------------|
|----------------------------------------------------|
|----------------------------------------------------|
|----------------------------------------------------|
|----------------------------------------------------|
|-7-7^0-7-7^0-7-7^0h7^0-8--8^0-8^0-8--8--8--8^8^8^0--|

Guitar II lead
|-----------------------------------------12~----15~-17~--12~-|
|-------------------------------------------------------------|
|-------------------------------------------------------------|
|-------------------------------------------------------------|
|-------------------------------------------------------------|
|-------------------------------------------------------------|
               Hangin' Low                  
|---------------------------------------|
|---------------------------------------|
|----------------------------------13~--|
|----------------------------------14~--|
|----------------------------------14~--|
|-7-7^0-7-7^0-7-7^0h7^0-8--8^0-8^0-12~--|

Both Guitars (Heavy Distortion)
|----------|
|----------|
|----------|
|-10--10---|
|-10--10---|
|-8p0-8p0--|
       Come Let's Play Along and  Let Each Other  
|--------------------------------------------------|
|--------------------------------------------------|
|--------------------------------------------------|
|-9-9-9-9-9-9-9-9-9-9-9-10-10--10-10--10---10--10--|
|-9-9-9-9-9-9-9-9-9-9-9-10-10--10-10--10---10--10--|
|-7-7p0-7^0-7^0-7-0-7-0-8--8^0-8--8^0-8-^0-8p0-8p0-|

 Lose A Win Would Cause an Alarm  Don't Matter to Me Don't Matter
|------------------------------------------------------------|
|----------------------------------13-13-13-13-13-13-13-13---|
|----------------------------------9--9--9--9--9--9--9--9----|
|-9-9-9-9-9-9-9-9-9-9-9-10-10--10--10-10-10-10-10-10-10-10---|
|-9-9-9-9-9-9-9-9-9-9-9-10-10--10--10-10-10-10-10-10-10-10---|
|-7-7^0-7-7^0-7-7^0h7^0-8--8^0-8---8--8--8--8--8--8--8--8----|

 To You      Oh Yeah    Oh Yeah
|--------------------------------------------------|
|--------------------------------------------------|
|--------------------------------------------------|
|-9-9-9-9-9-9-9-9-9-9-9-10-10--10-10--10---10--10--|
|-9-9-9-9-9-9-9-9-9-9-9-10-10--10-10--10---10--10--|
|-7-7p0-7^0-7^0-7-0-7-0-8--8^0-8--8^0-8-^0-8p0-8p0-|

  Whoa-oohwhoa-oohwhoa-yeah
|----------------------------------------------|
|----------------------------------------------|
|----------------------------------------------|
|-9-9-9-9-9-9-9-9-9-9-9-10-10--10-10--10---10--|
|-9-9-9-9-9-9-9-9-9-9-9-10-10--10-10--10---10--|
|-7-7p0-7^0-7^0-7-0-7-0-8--8^0-8--8^0-8-^0-8p0-|

Chorus (Heavy Distortion)

    A sharp            C  A sharp            C                       
                       I Could Keep You All For
|-----------------------------------------------|
|-----------------------------------------------|
|-----------------------------------------------|
|-3/12p10-12p10-12p10-/14-12p10-12p10-12p10-/14-|
|-3/12p10-12p10-12p10-/14-12p10-12p10-12p10-/14-|
|-1/10-10-10-10-10-10-/12-10-10-10-10-10-10-/12-|
 
  G sharp         C G sharp          C 
  Myself             I Know You Gotta Be
|---------------------------------------|
|---------------------------------------|
|---------------------------------------|
|-10p8-10p8-10p8-/14-10p8-10p8-10p8-/14-|
|-10p8-10p8-10p8-/14-10p8-10p8-10p8-/14-|
|-8--8-8--8-8--8-/12-8--8-8--8-8--8-/12-|

  F          C   F      B     G sharp         C  G sharp         C    
  Free                  So Free Yourself      
|--------------------------------------------------------------------|
|--------------------------------------------------------------------|
|--------------------------------------------------------------------|
|-7-7-7-7-7--14--7-7-7-9-9-9--10p8-10p8-10p8-/14-10p8-10p8-10p8-/14--|
|-7-7-7-7-7--14--7-7-7-9-9-9--10p8-10p8-10p8-/14-10p8-10p8-10p8-/14--|
|-5-5-5-5-5--12--5-5-5-7-7-7--8--8-8--8-8--8-/12-8--8-8--8--8-8-/12--| 2x

Verse II
                  Hangin' Low           Ooooohoh
|------------------------------------------------------|
|------------------------------------------------------|
|------------------------------------------------------|
|------------------------------------------------------|
|------------------------------------------------------|
|-1/7-7^0-7-7^0-7-7^0h7^0-8--8^0-8^0-8--8--8--8^8^8^0--|


 Hangin' Low
|----------------------------------------------------|
|----------------------------------------------------|
|----------------------------------------------------|
|------------------------------------------------10\-|
|------------------------------------------------10\-|
|-7-7p0-7^0-7^0-7-0-7-0-8--8^0-8--8^0-0-7-0-12-0--8\-|

Lead
|------------------------------------------------------------|
|------------------------------------------------------------|
|-------------------------------------------------14^/16~~~--|
|------------------------------------------------------------|
|------------------------------------------------------------|
|------------------------------------------------------------|
         Self-Inflicted Wound Your Gift Impeccable Aim 
|--------------------------------------------------|
|--------------------------------------------------|
|--------------------------------------------------|
|-9-9-9-9-9-9-9-9-9-9-9-10-10--10-10--10---10--10--|
|-9-9-9-9-9-9-9-9-9-9-9-10-10--10-10--10---10--10--|
|-7-7p0-7^0-7^0-7-0-7-0-8--8^0-8--8^0-8-^0-8p0-8p0-|

 Can Really Clear a Room, All the Bodies Pile Up in Your Way
|--------------------------------------------------------|
|---------------------------------------------------11~--|
|-----------------------9---11--12--11--9---11--12-------|
|-9-9-9-9-9-9-9-9-9-9-9-10--10--10--10--10--10--10--10---|
|-9-9-9-9-9-9-9-9-9-9-9-10--10--10--10--10--10--10--10---|
|-7-7^0-7-7^0-7-7^0h7^0-8---8---8---8---8---8---8---8----|

 Oh Yeah (It Hurts) Whoah yeah (Well it Must) Whoa Yeah
|--------------------------------------------------|
|--------------------------------------------------|
|--------------------------------------------------|
|-9-9-9-9-9-9-9-9-9-9-9-10-10--10-10--10---10--10--|
|-9-9-9-9-9-9-9-9-9-9-9-10-10--10-10--10---10--10--|
|-7-7p0-7^0-7^0-7-0-7-0-8--8^0-8--8^0-8-^0-8p0-8p0-|

Lead
|--------------------------------------------------------|
|--------------------------------------------------------|
|-7^/9^~~~~~~~~~~~~~~~8^/9^~~~~~~~~~~9^/11^~~~~~~~~~~~~--|
|--------------------------------------------------------|
|--------------------------------------------------------|
|--------------------------------------------------------|

Chorus II
Chorus (Heavy Distortion)

    A sharp            C  A sharp            C                       
                       I Could Keep You All For
|-----------------------------------------------|
|-----------------------------------------------|
|-----------------------------------------------|
|-3/12p10-12p10-12p10-/14-12p10-12p10-12p10-/14-|
|-3/12p10-12p10-12p10-/14-12p10-12p10-12p10-/14-|
|-1/10-10-10-10-10-10-/12-10-10-10-10-10-10-/12-|
 
  G sharp         C G sharp          C 
  Myself             I Know You Gotta Be
|---------------------------------------|
|---------------------------------------|
|---------------------------------------|
|-10p8-10p8-10p8-/14-10p8-10p8-10p8-/14-|
|-10p8-10p8-10p8-/14-10p8-10p8-10p8-/14-|
|-8--8-8--8-8--8-/12-8--8-8--8-8--8-/12-|

  F          C   F      G     G sharp         C  G sharp         C    
  Free                  So Free Yourself ("To Kill Yourself" 2nd time)     
|--------------------------------------------------------------------|
|--------------------------------------------------------------------|
|--------------------------------------------------------------------|
|-7-7-7-7-7--14--7-7-7-9-9-9--10p8-10p8-10p8-/14-10p8-10p8-10p8-/14--|
|-7-7-7-7-7--14--7-7-7-9-9-9--10p8-10p8-10p8-/14-10p8-10p8-10p8-/14--|
|-5-5-5-5-5--12--5-5-5-7-7-7--8--8-8--8-8--8-/12-8--8-8--8--8-8-/12--| 2x

Solos (two leads over bass driven chorus rhythm) not so much dueling,
more walzting leads

Guitar I (the end notes are tremloe picked) 
|----------------------------------------------------------|
|----------------------------------------------------------|
|-11^(12)-11~~~-11^(12)-11~~~-11h12p9~~~-9/12\9~~~---------|
|----------------------------------------------------------|
|----------------------------------------------------------|
|----------------------------------------------------------|

|----------------------------------------|
|----------------------------------------|
|-12/6~~~~--12/6~~~~--5~~~~-5/12\5~~~~~--|
|----------------------------------------|
|----------------------------------------|
|----------------------------------------|
After This point Guitar I plays chorus rhythm while other guitar pushes out
more lead

Guitar II Lead 

|-14^(15)-14~~-14^(15)-14~~~-14h15p14/12~~~--12/15\12~~~~--|
|----------------------------------------------------------|
|----------------------------------------------------------|
|----------------------------------------------------------|
|----------------------------------------------------------|
|----------------------------------------------------------|

|-15\9~~~~--15\9~~~~------------------------------|
|--------------------10h12-12^(13)~~~-12-10/17~~~-|
|-------------------------------------------------|
|-------------------------------------------------|
|-------------------------------------------------|
|-------------------------------------------------|

*Guitar I goes back to rhythm 
|----------------------------------------------------------------------|
|----------------------------------------------------------------------|
|----------------------------------------------------------------------|
|-7-7-7-7-7--14--7-7-7-7-7--14--10p8-10p8-10p8-/14-10p8-10p8-10p8-/14--|
|-7-7-7-7-7--14--7-7-7-7-7--14--10p8-10p8-10p8-/14-10p8-10p8-10p8-/14--|
|-5-5-5-5-5--12--5-5-5-5-5--12--8--8-8--8-8--8-/12-8--8-8--8--8-8-/12--| 3x

Guitar II
|-------15^-15^/9~~-15/9~~~--17h19-19^(20)-19-17-22^(24)-22^(24)~~~--|
|-15h17--------------------------------------------------------------|
|--------------------------------------------------------------------|
|--------------------------------------------------------------------|
|--------------------------------------------------------------------|
|--------------------------------------------------------------------|

|-\21~~~--21\12~~~--12/17~-15~-19~-12~--|
|---------------------------------------|
|---------------------------------------|
|---------------------------------------|
|---------------------------------------|
|---------------------------------------|

|-12h15p12/9~~~-12h15p12/8~~~-------------------------------|
|------------------------------10h12-12^(13)-12-10/17~~~~~--|
|-----------------------------------------------------------|
|-----------------------------------------------------------|
|-----------------------------------------------------------|
|-----------------------------------------------------------|

Guitar II 
|------|
|------|
|------|
|-3/9--|
|-3/9--|
|-1/7--|

BURN THE WITCH transcribed by daniel c b, slipknot_skater@hotmail.com

Standard tuning, Distorted guitar

eI------------------------------------------| .I
BI------------------------------------------| .I
GI------------------------------------------| .I
DI------------------------------------------| .I
AI-2-2-----2-2-----2-2-----2-2-[12\2]-------| .I
EI-0-0-----0-0-----0-0-----0-0--------------| .I

Instrumentals come in...

Verse Riff. Played by Guitar 1

eI----------------------------------| .I
BI----------------------------------| .I
GI----------------------------------| .I
DI-----(5)p2------------------------| .I X8 times
AI-2-2------5--2-2-(5)p2------------| .I
EI-0-0---------0-0-------5-3--------| .I
       LP-----I   LP----------------| .I

Guitar 2: fill 1 (00:22-00:23 seconds in)

eI------------------------7-7-------| .I
BI-----------------------5---8------| .I
GI------------------5h7h8-----------| .I
DI----------------------------------| .I
AI----------------------------------| .I
EI----------------------------------| .I

Guitar 2: fill 2 (00:30-00:31 seconds in)

eI-------------------7----7~----------| .I
BI-----------------(5~)-(5~)----------| .I
GI------------------------------------| .I
DI------------------------------------| .I
AI------------------------------------| .I
EI------------------------------------| .I

"Holding hands
Skipping like a stone
On our way"...

Guitar 2 fill 3 (00:38-00:39 seconds in)

eI------------7-10-7--------------------------------------------------------|I
BI------------5-------5~----------------------------------------------------|I <-Let note(5 or A)
GI--------------------------------------------------------------------------|I Ring through using
DI-------------------------------.I vibrato from about 00:39----------------| until about
AI-------------------------------.I       00:46 or 00:47--------------------| seconds in, so
EI-------------------------------.I-----------------------------------------|             about 7 or 8 seconds
                                                   right into the chorus.
                 "To see what we have done        *An alternative to make it
                 The first to speak                easier switching would
                 Is the first to lie               be holding the 9th fret
                 The children cross                on the G string instead
                 Their hearts & hope to die"...    of the 5th on the Bstring

(slider guitar?)
eI-11~-7-/12~-7-/14~-7-/15~-11-/(17)~-17\14-15-\12-14-\11-12~--------| .I
BI-------------------------------------------------------------------| .I
GI-------------------------------------------------------------------| .I
DI-------------------------------------------------------------------| .I
AI-------------------------------------------------------------------| .I
EI-------------------------------------------------------------------| .I
      "Bite  your  tongue  Swear  to  keep  your  mouth  shut"

Riff before 2nd verse

eI----------------------------------------------------------| .I
BI----------------------------------------------------------| .I
GI----------------------------------------------------------| .I Played X4 times until the
DI-----(5)p2------------------------------------------------| .I verse starts.
AI-2-2------5--2-2-(5)-p2-----------------------------------| .I
EI-0-0---------0-0-------5-3---------------| .I  **NOTE-----| its not (lightly)
                                                          palm muted here

Guitar 2 fill 4 (01:08-01:09 minutes in)

eI----------------------7--------------| .I
BI-----------------5h7h8-(8)-8-5-------| .I
GI-------------------------------------| .I
DI-------------------------------------| .I
AI-------------------------------------| .I
EI-------------------------------------| .I

Guitar 2 fill 5 (01:15-01:17 minutes in leading into verse)

eI--7--77--7-7-------------------------| .I
BI--5--55--5-5-5-----------------------| .I
GI-------------------------------------| .I
DI-------------------------------------| .I
AI-------------------------------------| .I
EI-------------------------------------| .I

2nd Verse

eI----------------------------------| .I
BI----------------------------------| .I
GI----------------------------------| .I
DI----------------------------------| .I X8 times
AI-2-2-(5)-p2--2-2-(5)-p2-----------| .I
EI-0-0-------5-0-0-------5-3--------| .I
       LP-----I   LP----------------| .I

"Ask yourself
Will i burn in Hell?
Then write it down"

Guitar 2 fill 6 (01:24-01:25 minutes in)
eI------------2/-7p-7p-----------------| .I
BI---------------5--5~-----------------| .I
GI-------------------------------------| .I
DI-------------------------------------| .I
AI-------------------------------------| .I
EI-------------------------------------| .I
"& cast it in the well
There they are
The mob it cries for blood
To twist the tale"

Guitar 2 fill 7 (01:31-01:32 minutes in)

eI---------------7px7p-----------------| .I
BI---------------5px5p-----------------| .I
GI-------------------------------------| .I
DI-------------------------------------| .I
AI-------------------------------------| .I
EI-------------------------------------| .I
"Into fire wood
Fan the flames"...

Guitar 2 fill 8
eI------------------7------------------| .I
BI--------------- 5---8----------------| .I
GI--------------(7)~-------------------| .I
DI-------------------------------------| .I
AI-------------------------------------| .I
EI-------------------------------------| .I

Guitar 2 fill 9 (01:31-01:48 minutes in) LONGEST FILL IN SONG

eI--------7--7--------------7--7--------------(7)------------12-----------| .I c
BI------5--5--5-8-8---8-5--5-5-----8-5-----5-8---8---8-5---(10)--8-5-5----| .I o
GI-5h7h8-----------------7-------------7--7-------------7-----------------| .I n
DI------------------------------------------------------------------------| .I t
AI------------------------------------------------------------------------| .I d
EI------------------------------------------------------------------------| .I
"With a little lie
Then turn your cheek
Until the fire dies"...

Guitar 2 fill Cont.d

eI------------------------------------------| .I
BI--8-5--------------8-5--------------------| .I
GI-----7---7-4----------7--7-4--------------| .I
DI-------------7-5-------------7-5----------| .I
AI-----------------7------------------------| .I
EI------------------------------------------| .I
"The skin it peels
Like the truth, away
What it was
I will never say..."

eI------------------------------------------| .I
BI------------------------------------------| .I
GI------------------------------------------| .I
DI------------------------------------------| .I
AI-2-2-----2-2-----2-2-----2-2--------------| .I
EI-0-0-----0-0-----0-0-----0-0--------------| .I
     "ahaha" "ohoho" "ahaha" "ohoowhoao"
Chorus

eI-11~-7-/12~-7-/14~-7-/15~-11-/(17)~-17\14-15-\12-14-\11-12~--------| .I
BI-------------------------------------------------------------------| .I
GI-------------------------------------------------------------------| .I
DI-------------------------------------------------------------------| .I
AI-------------------------------------------------------------------| .I
EI-------------------------------------------------------------------| .I
       "Bite your tongue, swear to keep, Keep your mouth shut"


Chorus fill (just continue from where left off on the chorus)

eI--12~-/(15)~-14~-/(17)~-(15)~-\12~-/14~-\11~---------------------------| .I
BI-----------------------------------------------------------------------| .I
GI-----------------------------------------------------------------------| .I
DI-----------------------------------------------------------------------| .I
AI-----------------------------------------------------------------------| .I
EI-----------------------------------------------------------------------| .I
    "Make up something, Make up something good..."

Interlude or whatever its called
the e power chords are played by guitar1, and notes with bends are guitar 2

eI-------------------------------------------| .I
BI-------9-----10----(8)----(5)--------------| .I
GI-----(10)---(11)---(10)---(7)--------------| .I
DI-------------------------------------------| .I
AI--2-2----2-2----2-2----2-2-----------------| .I
EI--0-0----0-0----0-0----0-0-----------------| .I

[INSERT SOLO HERE]
sorry ive been tabbing this all day i cant do the solo right now...moving on


eI--------------------------------------------------------------------| .I
BI--------------------------------------------------------------------| .I
GI--------------------------------------------------------------------| .I
DI--------------------------------------------------------------------| .I
AI--2-2---2-2-2-2--2-2---2-2-2-2--2-2---2-2-2-2--2-2---2-2-2-2--------| .I
EI--0-0---0-3-0-3--0-0---0-3-0-3--0-0---0-3-0-3--0-0---0-3-0-3--------| .I

[INSERT 2ND SOLO HERE]
again im sorry, im tired and i got school tomorrow.

During the 2nd solo Guitar 2 plays this 4 times

eI-----------------------------------------------------------------------|I
BI-----------------------------------------------------------Played------|I
GI-------------------------------------------------------------x4--------|I
DI-----------------------------------------------------------------------|I
AI--2-2---2-2-2-2----2-2---2-2-2-2----2-2---2-2-2-2----2-2---2-2-2-2-----|I
EI--0-0---0-3-0-3----0-0---0-3-0-3----0-0---0-3-0-3----0-0---0-3-0-3-----|I

theres a few other guitar parts here but u can just play this to go out on if you want,
sound like the lyrics

eI-----------------------------------------| .I
BI----8-5----------------------------------| .I
GI-------7~--7-4---------------------------| .I
DI---------------7-5-----------------------| .I
AI-------------------7---------------------| .I
EI-----------------------------------------| .I

this is how it is in the song though

eI-----------------------------------------| .I
BI------8-5--------------------------------| .I
GI---------7-------------------------------| .I X4 times
DI-----------------------------------------| .I
AI--2-2------2-2---2-2-2-2-----------------| .I
EI--0-0------0-0---0-3-0-3-----------------| .I

"Holding hands
Skipping like a stone
Burn the witch
Burn to ash & bone
Burn the witch
Burn to ash & bone
Burn the witch
Burn to ash & bone"...


eI-----------------------------------------| .I
BI-----------------------------------------| .I
GI-----------------------------------------| .I
DI------(5)p2------------------------------| .I
AI--2-2------5-2-2-(5)p2-------------------| .I
EI--0-0--------0-0------5-3----------------| .I
       LP-----I    LP----------------------| .I

eI--------------| .I
BI--------------| .I
GI--------------| .I
DI--------------| .I
AI--2\/---------| .I
EI--0\/---------| .I

IN MY HEAD transcribed by Mithra, vwrede@gmx.de

==> Intro <==

|-------------------------------------------------|
|-------------------------------------------------|
|-------------------------------------------------|
|-------------------------------------------------|
|-11-11-11-11-11-11-11-11-11-11-11-11-11-11-11-11-|
|-------------------------------------------------|

|-------------------------------------------------|
|-------------------------------------------------|
|-------------------------------------------------|
|-------------------------------------------------|
|-11-11-11-11-10-10-10-10-10-10-10-10-10-10-10-10-|
|-------------------------------------------------|

|-------------------------------------------------|
|-------------------------------------------------|
|-------------------------------------------------|
|-------------------------------------------------|
|-10-10-10-10-9-9-9-9-9-9-9-9-9-9-9-9-9-9-9-9-10--|
|-------------------------------------------------|

|-------------------------------------------------|
|-------------------------------------------------|
|-------------------------------------------------|
|-------------------------------------------------|
|-10-10-10-10-10-10-10-10-10-10-10-10-10-10-10-10-|
|-------------------------------------------------|

==> Verse 1 <==

|-|---------------------------------------------------|
|-|---------------------------------------------------|
|°|------------------5-5-5-5-5-5-5-5--6-6-6-6-6-6-6-6-|
|°|-2-2-2-2-2-2-2-2--5-5-5-5-5-5-5-5--6-6-6-6-6-6-6-6-|
|-|-2-2-2-2-2-2-2-2--3-3-3-3-3-3-3-3--4-4-4-4-4-4-4-4-|
|-|-0-0-0-0-0-0-0-0-----------------------------------|

|--------------------------|-|
|--------------------------|-|
|--------------------------|°|  Repeat
|-7-7-7-7-\-5-/-7-\-5------|°|  4 Times
|-7-7-7-7-\-5-/-7-\-5------|-|
|-5-5-5-5-\-3-/-5-\-3------|-|

==> Chorus <==

|-------------------------------------------------|
|-------------------------------------------------|
|-------------------------------------------------|
|-------------------------------------------------|
|-14-14-14-14-14-14-14-14-14-14-14-14-14-14-14----|
|-12-12-12-12-12-12-12-12-12-12-12-12-12-12-12----|

|-------------------------------------------------|
|-------------------------------------------------|
|-------------------------------------------------|
|-------------------------------------------------|
|-10-10-10-10-10-10-10-10-10-10-10-10-10-10-10----|
|-10-10-10-10-10-10-10-10-10-10-10-10-10-10-10----|

|-------------------------------------------------|
|-------------------------------------------------|
|-------------------------------------------------|
|-------------------------------------------------|
|-12-12-12-12-12-12-12-12-12-12-12-12-12-12-12----|
|-10-10-10-10-10-10-10-10-10-10-10-10-10-10-10----|

|-------------------------------------------------|
|-------------------------------------------------|
|-------------------------------------------------|
|-------------------------------------------------|
|-13-13-13-13-13-13-13-13-13-13-13-13-13-13-13----|
|-11-11-11-11-11-11-11-11-11-11-11-11-11-11-11----|

==> Verse 2 <==

|-|---------------------------------------------------|
|-|---------------------------------------------------|
|°|------------------5-5-5-5-5-5-5-5--6-6-6-6-6-6-6-6-|
|°|-2-2-2-2-2-2-2-2--5-5-5-5-5-5-5-5--6-6-6-6-6-6-6-6-|
|-|-2-2-2-2-2-2-2-2--3-3-3-3-3-3-3-3--4-4-4-4-4-4-4-4-|
|-|-0-0-0-0-0-0-0-0-----------------------------------|

|--------------------------|-|
|--------------------------|-|
|--------------------------|°|  Repeat
|-7-7-7-7-\-5-/-7-\-5------|°|  4 Times
|-7-7-7-7-\-5-/-7-\-5------|-|
|-5-5-5-5-\-3-/-5-\-3------|-|


==> Chorus <==

|-|-----------------------------------------------|
|-|-----------------------------------------------|
|°|-----------------------------------------------|
|°|-----------------------------------------------|
|-|-14-14-14-14-14-14-14-14-14-14-14-14-14-14-14--|
|-|-12-12-12-12-12-12-12-12-12-12-12-12-12-12-12--|

|-------------------------------------------------|
|-------------------------------------------------|
|-------------------------------------------------|
|-------------------------------------------------|
|-10-10-10-10-10-10-10-10-10-10-10-10-10-10-10----|
|-10-10-10-10-10-10-10-10-10-10-10-10-10-10-10----|

|-------------------------------------------------|
|-------------------------------------------------|
|-------------------------------------------------|
|-------------------------------------------------|
|-12-12-12-12-12-12-12-12-12-12-12-12-12-12-12----|
|-10-10-10-10-10-10-10-10-10-10-10-10-10-10-10----|

|-----------------------------------------------|-|
|-----------------------------------------------|-|
|-----------------------------------------------|°|  Repeat
|-----------------------------------------------|°|  once
|-13-13-13-13-13-13-13-13-13-13-13-13-13-13-13--|-|
|-11-11-11-11-11-11-11-11-11-11-11-11-11-11-11--|-|

==> Interlude <==

|-------------------------------------------------|
|-------------------------------------------------|
|-------------------------------------------------|
|-1-1-1-1-1-1-1--2-2-2-4-4-4-5-5-5-5-5-5-5-\------|
|-------------------------------------------------|
|-------------------------------------------------|

|-------------------------------------------------|
|-------------------------------------------------|
|-------------------------------------------------|
|-1-1-1-1-1-1-1--2-2-2-4-4-4-5-5-5h7p5h7p5-\------|
|-------------------------------------------------|
|-------------------------------------------------|

|-------------------------------------------------|
|-------------------------------------------------|
|-------------------------------------------------|
|-1-1-1-1-1-1-1--2-2-2-4-4-4-5-5-5h7b9-7-5-\------|
|-------------------------------------------------|
|-------------------------------------------------|

|---------------------------------|
|---------------------------------|
|---------------------------------|
|-1-1-1-1-1-1-1--2-2-2-4-4-4------|
|---------------------------------|
|---------------------------------|

==> Interlude, continued <==

|-|---------------------------------------------------|
|-|---------------------------------------------------|
|°|------------------5-5-5-5-5-5-5-5--6-6-6-6-6-6-6-6-|
|°|-2-2-2-2-2-2-2-2--5-5-5-5-5-5-5-5--6-6-6-6-6-6-6-6-|
|-|-2-2-2-2-2-2-2-2--3-3-3-3-3-3-3-3--4-4-4-4-4-4-4-4-|
|-|-0-0-0-0-0-0-0-0-----------------------------------|

|--------------------------|-|
|--------------------------|-|
|--------------------------|°|  Repeat
|-7-7-7-7-\-5-/-7-\-5------|°|  once
|-7-7-7-7-\-5-/-7-\-5------|-|
|-5-5-5-5-\-3-/-5-\-3------|-|



|---------------------------------------------------|
|---------------------------------------------------|
|---------------------------------------------------|
|---------------------------------------------------|
|---------------------------------------------------|
|-0-0-0-0-0-0-0-0-0-0-0-0-0-3-3-3-3-3-3-3-3-3-3-3-3-|
  ~ ~ ~ ~ ~ ~ ~ ~ ~ ~ ~ ~ ~ ~ ~ ~ ~ ~ ~ ~ ~ ~ ~ ~ ~

|---------------------------------------------------|
|---------------------------------------------------|
|---------------------------------------------------|
|---------------------------------------------------|
|---------------------------------------------------|
|-/-10-10-10-10-10-10-10-10-10-10-10-10-10-10-10-10-|
    ~~ ~~ ~~ ~~ ~~ ~~ ~~ ~~ ~~ ~~ ~~ ~~ ~~ ~~ ~~ ~~

|---------------------------------------------------|
|---------------------------------------------------|
|---------------------------------------------------|
|---------------------------------------------------|
|---------------------------------------------------|
|-11-11-11-11-11-11-11-11-11-11-11-11-11-11-11------|
  ~~ ~~ ~~ ~~ ~~ ~~ ~~ ~~ ~~ ~~ ~~ ~~ ~~ ~~ ~~

==> Chorus <==

|-------------------------------------------------|
|-------------------------------------------------|
|-------------------------------------------------|
|-------------------------------------------------|
|-14-14-14-14-14-14-14-14-14-14-14-14-14-14-14----|
|-12-12-12-12-12-12-12-12-12-12-12-12-12-12-12----|

|-------------------------------------------------|
|-------------------------------------------------|
|-------------------------------------------------|
|-------------------------------------------------|
|-10-10-10-10-10-10-10-10-10-10-10-10-10-10-10----|
|-10-10-10-10-10-10-10-10-10-10-10-10-10-10-10----|

|-------------------------------------------------|
|-------------------------------------------------|
|-------------------------------------------------|
|-------------------------------------------------|
|-12-12-12-12-12-12-12-12-12-12-12-12-12-12-12----|
|-10-10-10-10-10-10-10-10-10-10-10-10-10-10-10----|

|-------------------------------------------------|
|-------------------------------------------------|
|-------------------------------------------------|
|-------------------------------------------------|
|-13-13-13-13-13-13-13-13-13-13-13-13-13-13-13----|
|-11-11-11-11-11-11-11-11-11-11-11-11-11-11-11----|

==> Solo <==

|-|-------------------------------------------------|-|
|-|-------------------------------------------------|-|
|°|-9-/-11-11-11-11-11-11--11--11-\-9-/-11-\-9------|°| Repeat 
|°|-------------------------------------------------|°| 2 times
|-|-------------------------------------------------|-|
|-|-------------------------------------------------|-|

|---------------------------------------------------|
|---------------------------------------------------|
|-9-/-11-11-11-11-11-12--12--12-/-14-\-12-\-9-------|
|---------------------------------------------------|
|---------------------------------------------------|
|---------------------------------------------------|

|--------------------------------------------------------|
|--------------------------------------------------------|
|-9-/-11-11-11-11-11-\-9-/-11-/-14-\-11-/-14b16-\-11-\-9-|
|--------------------------------------------------------|
|--------------------------------------------------------|
|--------------------------------------------------------|

|------------------------------------------------------------|
|------------------------------------------------------------|
|-9-/-11-11-11-11-11-\-9-/-11-/-14-\-11-/-14-/-16b18b16-\-14-|
|------------------------------------------------------------|
|------------------------------------------------------------|
|------------------------------------------------------------|

|---------------------------------------------------|
|---------------------------------------------------|
|-9-/-11-11-11-11-11-12--12--12-/-14-\-12-\-9-------|
|---------------------------------------------------|
|---------------------------------------------------|
|---------------------------------------------------|

==> Outro <==

|-|-------------------------------------------------|
|-|-------------------------------------------------|
|°|-------------------------------------------------|
|°|-------------------------------------------------|
|-|-11-11-11-11-11-11-11-11-11-11-11-11-11-11-11-11-|
|-|-------------------------------------------------|

|-------------------------------------------------|
|-------------------------------------------------|
|-------------------------------------------------|
|-------------------------------------------------|
|-11-11-11-11-10-10-10-10-10-10-10-10-10-10-10-10-|
|-------------------------------------------------|

|-------------------------------------------------|
|-------------------------------------------------|
|-------------------------------------------------|
|-------------------------------------------------|
|-10-10-10-10-9-9-9-9-9-9-9-9-9-9-9-9-9-9-9-9-10--|
|-------------------------------------------------|

|--------------------------------------------------|-|
|--------------------------------------------------|-|
|--------------------------------------------------|°| Repeat
|--------------------------------------------------|°| Once
|-10-10-10-10-10-10-10-10-10-10-10-10-10-10-10-(10)|-|
|--------------------------------------------------|-|

LITTLE SISTER transcribed by Carlson2000

standard tuning

Intro
----------------------------------

Guitar 1:

e|-------------------------|--------------------
B|-------------------------|--------------------
G|-6--6-----------------9--|--9--9--------------
D|-6--6-----6--6--6-----9--|--9--9----6--6--6---
A|-4--4-----6--6--6-----7--|--7--7----6--6--6---
E|----------4--4--4--------|----------4--4--4---

e|----|-------------------------|--------------------
B|----|-------------------------|--------------------
G|-6--|-6--6-----------------9--|--9--9--------------
D|-6--|-6--6-----6--6--6-----9--|--9--9----6--6--6---   x3
A|-4--|-4--4-----6--6--6-----7--|--7--7----6--6--6---
E|----|----------4--4--4--------|----------4--4--4---

Guitar 2:

e|----|-------------------------|--------------------
B|----|-------------------------|--------------------
G|----|-6--6------8--8--8----9--|--9--9----13-13-13--
D|----|-6--6------8--8--8----9--|--9--9----13-13-13--
A|----|-4--4------6--6--6----7--|--7--7----11-11-11--
E|----|-------------------------|--------------------

e|----|-------------------------|--------------------
B|----|-------------------------|--------------------
G|-6--|-6--6------8--8--8----9--|--9--9----13-13-13--
D|-6--|-6--6------8--8--8----9--|--9--9----13-13-13--   x3
A|-4--|-4--4------6--6--6----7--|--7--7----11-11-11--
E|----|-------------------------|--------------------



Verse 1
----------------------------------

Guitar 1:

e|-*--|-------------------------|--------------------        --|
B|----|-------------------------|--------------------          |
G|-6--|-6--6-----------------9--|--9--9--------------          |
D|-6--|-6--6-----6--6--6-----9--|--9--9----6--6--6---   x3     |
A|-4--|-4--4-----6--6--6-----7--|--7--7----6--6--6---          |
E|----|----------4--4--4--------|----------4--4--4---          |
                                                                |--  x2
e|----|-------------------------|-------------------------|    |
B|----|-------------------------|-------------------------|    |
G|----|-------------------------|-------------------------|    |
D|-4--|-4--4-----4--4--4-----2--|-2--2-----2--2--2--1--0--|    |
A|-4--|-4--4-----4--4--4-----2--|-2--2-----2--2--2--1--0--|    |
E|-2--|-2--2-----2--2--2-----0--|-0--0-----0--0--0--x--x--|  --|

Guitar 2:

e|-*--|-------------------------|--------------------        --|
B|----|-------------------------|--------------------          |
G|-6--|-6--6-----------------9--|--9--9----13-13-13--          |
D|-6--|-6--6-----6--6--6-----9--|--9--9----13-13-13--   x3     |
A|-4--|-4--4-----6--6--6-----7--|--7--7----11-11-11--          |
E|----|----------4--4--4--------|--------------------          |
                                                                |--  x2
e|----|-------------------------|-------------------------|    |
B|----|-------------------------|-------------------------|    |
G|-11-|--11-11----11-11-11---9--|--9--9----9--9--9--8--6--|    |
D|-11-|--11-11----11-11-11---9--|--9--9----9--9--9--8--6--|    |
A|--9-|---9--9-----9--9--9---7--|--7--7----7--7--7--6--4--|    |
e|----|-------------------------|-------------------------|  --|



Chorus 1
----------------------------------

Guitar 1:

e|-------------------------|-------------------------|  --|
B|-------------------------|-------------------------|    |
G|-------------------------|-------------------------|    |
D|-4--4--4--4--4--4--4--4--|-2--2--2--2--2--2--2--2--|    |
A|-4--2--4--2--4--2--4--2--|-2--0--2--0--2--0--2--0--|    |
E|-2--2--2--2--2--2--2--2--|-0--0--0--0--0--0--0--0--|    |
                                                            |--  x3
e|-------------------------|-------------------------|    |
B|-------------------------|-------------------------|    |
G|-------------------------|-------------------------|    |
D|-6--6--6--6--6--6--6--6--|-4--4--4--4--4--4--4--4--|    |
A|-6--4--6--4--6--4--6--4--|-4--2--4--2--4--2--4--2--|    |
E|-4--4--4--4--4--4--4--4--|-2--2--2--2--2--2--2--2--|  --|

e|-------------------------|-------------------------|
B|-------------------------|-------------------------|
G|-------------------------|-------------------------|
D|-4--4--4--4--4--4--4--4--|-2--2--2--2--2--2--2--2--|
A|-4--2--4--2--4--2--4--2--|-2--0--2--0--2--0--2--0--|
E|-2--2--2--2--2--2--2--2--|-0--0--0--0--0--0--0--0--|

e|-------------------------|----------------------
B|-------------------------|----------------------
G|-------------------------|----------------------
D|-6--6--6--6--6--6--6--6--|-6--6--6--6--6--6--6--
A|-6--4--6--4--6--4--6--4--|-6--4--6--4--6--4--6--
E|-4--4--4--4--4--4--4--4--|-4--4--4--4--4--4--4--

Guitar 2:

e|-------------------------|-------------------------|  --|
B|-------------------------|-------------------------|    |
G|-11-11-11-11-11-11-11-11-|--9--9--9--9--9--9--9--9-|    |
D|-11--9-11--9-11--9-11--9-|--9--7--9--7--9--7--9--7-|    |
A|--9--9--9--9--9--9--9--9-|--7--7--7--7--7--7--7--7-|    |
E|-------------------------|-------------------------|    |
                                                            |--  x3
e|-------------------------|-------------------------|    |
B|-------------------------|-------------------------|    |
G|-13-13-13-13-13-13-13-13-|-11-11-11-11-11-11-11-11-|    |
D|-13-11-13-11-13-11-13-11-|-11--9-11--9-11--9-11--9-|    |
A|-11-11-11-11-11-11-11-11-|--9--9--9--9--9--9--9--9-|    |
E|-------------------------|-------------------------|  --|

e|-------------------------|-------------------------|
B|-------------------------|-------------------------|
G|-11-11-11-11-11-11-11-11-|--9--9--9--9--9--9--9--9-|
D|-11--9-11--9-11--9-11--9-|--9--7--9--7--9--7--9--7-|
A|--9--9--9--9--9--9--9--9-|--7--7--7--7--7--7--7--7-|
E|-------------------------|-------------------------|

e|-------------------------|-----------------------
B|-------------------------|-----------------------
G|-13-13-13-13-13-13-13-13-|-13-13-13-13-13-13-13--
D|-13-11-13-11-13-11-13-11-|-13-11-13-11-13-11-13--
A|-11-11-11-11-11-11-11-11-|-11-11-11-11-11-11-11--
E|-------------------------|-----------------------


Interlude
----------------------------------

Guitar 1:

e|----|-------------------------|-------------------
B|--12/14/12--------------------|-------------------
G|----|----------11/13/11-----11/13/11--------------
D|----|-------------------------|----------11/13/11-   x2
A|----|-------------------------|-------------------
E|----|-------------------------|-------------------

e|----|-------------------------|-----------------------
B|----|-------------------------|-----------------------
G|----|-6--6--6-----------------|--9--9--9--------------
D|----|-6--6--6-----6--6--6-----|--9--9--9----6--6--6---
A|----|-4--4--4-----6--6--6-----|--7--7--7----6--6--6---
E|----|-------------4--4--4-----|-------------4--4--4---

e|----|-------------------------|-------------------
B|--12/14/12--------------------|-------------------
G|----|----------11/13/11-----11/13/11--------------
D|----|-------------------------|----------11/13/11-
A|----|-------------------------|-------------------
E|----|-------------------------|-------------------

Guitar 2:

e|----|-------------------------|--------------------
B|----|-------------------------|--------------------
G|-6--|-6--6-----8--8--8-----9--|--9--9----13-13-13--
D|-6--|-6--6-----8--8--8-----9--|--9--9----13-13-13--   x2
A|-4--|-4--4-----6--6--6-----7--|--7--7----11-11-11--
E|----|-------------------------|--------------------

e|----|-------------------------|----------------------
B|----|-------------------------|----------------------
G|----|-6--6--6------8--8--8----|-9--9--9----13-13-13--
D|----|-6--6--6------8--8--8----|-9--9--9----13-13-13--
A|----|-4--4--4------6--6--6----|-7--7--7----11-11-11--
E|----|-------------------------|----------------------

e|----|-------------------------|--------------------
B|----|-------------------------|--------------------
G|----|-6--6------8--8--8----9--|--9--9----13-13-13--
D|----|-6--6------8--8--8----9--|--9--9----13-13-13--
A|----|-4--4------6--6--6----7--|--7--7----11-11-11--
E|----|-------------------------|--------------------


Verse 2
----------------------------------

Same as Verse 1 but without the first chord (*).


Chorus 2
----------------------------------

Same as Chorus 1.


Solo
----------------------------------

Guitar 1:

e|-----------------------------|-----------------------------|
B|12/14/12---------------------|-----------------------------|
G|-------------11/13/11--------|11/13/11---------------------|
D|-----------------------------|-------------11/13/11--------|  x2
A|-----------------------------|-----------------------------|
E|-----------------------------|-----------------------------|

e|-----------------------------|-----------------------------|
B|12h14p12-----14h16p14--------|14h16h17-----16p14p13--------|
G|-----------------------------|-----------------------------|
D|-----------------------------|-----------------------------|  x2
A|-----------------------------|-----------------------------|
E|-----------------------------|-----------------------------|

e|-----------------------------|-------------15b16--------16-|
B|-14-14-14----16-16-16--------|17-17-17---------------------|
G|-----------------------------|-----------------------------|
D|-----------------------------|-----------------------------|
A|-----------------------------|-----------------------------|
E|-----------------------------|-----------------------------|

e|-16--16----14b--14--14----12h14p12-------------------------|
B|-----------------------------|-------16p14p13--------------|
G|-----------------------------|-----------------------------|
D|-----------------------------|-----------------------------|
A|-----------------------------|-----------------------------|
E|-----------------------------|-----------------------------|

e|-----------------------------|-----------------------------|
B|-12--14--------------------12h14---------------------------|
G|---------13------------------|---13-11-13----11-13---------|
D|-----------------------------|--------------------------13-|
A|-----------------------------|---------------------11s14---|
E|-----------------------------|-----------------------------|

e|-----------------------------|-----------------------------|
B|-----------------------------|-----------------------------|
G|-11h13-----------------------|-------------11h13-----------|
D|-------13s11-----------------|------------------13p11p9h13-|
A|-------------11------9h11-11-|--9h11p9h11------------------|
E|-----------------------------|-----------------------------|

e|-----------------------------|-----------------------------|
B|-----------------------------|-----------------------------|
G|-----------------------------|-----------------------------|
G|---11-------13-11--13-11-----|-13---11---13---10-----------|
A|-----------------------------|-----------------------------|
E|-----------------------------|-----------------------------|

e|-----------------------------|-------9--9------------------|
B|-----------------9-----------|----9---------12h14-----13---|
G|------------9----------------|-9------------------13-------|
D|--9--h11-----------------9h11|-----------------------------|
A|-----------------------------|-----------------------------|
E|-----------------------------|-----------------------------|

e|-----------------------------|--------s16------------------|
B|-12--14--12--14s16--14---12--|-14------------13------------|
G|-----------------------------|-----13----------------------|
D|-----------------------------|-----------------------------|
A|-----------------------------|-----------------------------|
E|-----------------------------|-----------------------------|

e|-----------------------------|--------14--14--14-----------|
B|-12--14--12h14s16---14h16h17-|--16h17----------------------|
G|-----------------------------|-----------------------------|
D|-----------------------------|-----------------------------|
A|-----------------------------|-----------------------------|
E|-----------------------------|-----------------------------|

e|-14h16-16-16---14h16-16-16---|-12h14-14-14---11------------|
B|-----------------------------|-----------------------------|
G|-----------------------------|-----------------------------|
D|-----------------------------|-----------------------------|
A|-----------------------------|-----------------------------|
E|-----------------------------|-----------------------------|

e|-----16----16-----16----16---|-----19----(19)---16----(16)-|
B|--14----14-----16----16------|--17----17-----13----13------|
G|-----------------------------|-----------------------------|
D|-----------------------------|-----------------------------|  x4
A|-----------------------------|-----------------------------|
E|-----------------------------|-----------------------------|

Guitar 2:

e|-------------------------|-------------------------|
B|-------------------------|-------------------------|
G|-------------------------|-------------------------|
D|-------------------------|-------------------------|  x4
A|-------------------------|-------------------------|
E|-------------------------|-------------------------|

e|----|-------------------------|-----------------------
B|----|-------------------------|-----------------------
G|----|-6--6--6-----------------|--9--9--9--------------
D|----|-6--6--6-----6--6--6-----|--9--9--9----6--6--6---
A|----|-4--4--4-----6--6--6-----|--7--7--7----6--6--6---
E|----|-------------4--4--4-----|-------------4--4--4---

e|----|-------------------------|--------------------
B|----|-------------------------|--------------------
G|-6--|-6--6-----8--8--8-----9--|-9--9-----13-13-13--
D|-6--|-6--6-----8--8--8-----9--|-9--9-----13-13-13--   x11
A|-4--|-4--4-----6--6--6-----7--|-7--7-----11-11-11--
E|----|-------------------------|--------------------



Both Guitars end on:

e|---|
B|---|
G|-6-|
A|-6-|
D|-4-|
E|---|

I NEVER CAME transcribed by tylersugarcarlo 

standard tuning

Intro/Verse (clean with some cool sounding effect)
  E                       A/C# major              D
|-------------------------------------------------------------------------|
|-------------------------------------------------------------------------|
|-13-13-13-13-13-13-13-13-10-10-10-10-10-10-10-10-11-11-11-11-11-11-11-11-|
|-13-13-13-13-13-13-13-13-11-11-11-11-11-11-11-11-11-11-11-11-11-11-11-11-|
|-11-11-11-11-11-11-11-11--8--8--8--8--8--8--8--8--9--9--9--9--9--9--9--9-|
|-------------------------------------------------------------------------|
  G5
|------------------|
|------------------|
|-4-4-4-4-4-4-4-4--|
|-4-4-4-4-4-4-4-4--|
|-2-2-2-2-2-2-2-2--|
|------------------| 2x w/out vocals

 E        A/C#     D        G5
 When You Say It's Dead and Gone
     E       A/C#         D        G5
 Yes I Know------- You're Wrong---
 E       A/C#   D        G5
 Cut and Slash  Sharpest Knife
    E          A/C#      D       G5
 It Won't Die----------- Aaaahaaaaaa
 E      A/C#    D        G5
 Poisen Cup     Drank it Up
    E          A/C#      D       G5
 It Won't Die-----------
    E     A/C#       D        G5
 No Fire, No Gun, No Rope, No Stone
    E        A/C#        D       G5
 It Won't Die----------- Aaaahaaaaaa

Chorus (light distortion)
 Em                                          C
|---------------------------------------------------------------------------|
|-----12-------12-------12-----12-------------------------------------------|
13-13-13-13-13-13-13-13-13-13131313-13-13-13-9-9-9-9-9-9-9-9-9-9-9-9-9-9-9-9|
13-13-13-13-13-13-13-13-13-13131313-13-13-13-9-9-9-9-9-9-9-9-9-9-9-9-9-9-9-9|
11-11-11-11-11-11-11-11-11-11111111-11-11-11-7-7-7-7-7-7-7-7-7-7-7-7-7-7-7-7|
|---------------------------------------------------------------------------|
  A
|---------------------------------|
|---------------------------------|
|-6-6-6-6-6-6-6-6-6-6-6-6-6-6-6-6-|
|-6-6-6-6-6-6-6-6-6-6-6-6-6-6-6-6-|
|-4-4-4-4-4-4-4-4-4-4-4-4-4-4-4-4-|
|---------------------------------|

 Em                            C
  Why You Gotta Shove it in My Face
                         A
  As if You Put Me in My Place
                Em                            Em
  Cause I Don't Care if You or Me is Right or Wrong
                            C             A  
  Ain't Gonne Spend Another Night In Your Bed
          E
  In Your Bed

Lead Break (over verse rhythm) mid distortion
|----------------------------------------------|
|----------------------------------------------|
|----------------------11-10-------------------|
|----------11-13-11-13-------13-11-13----13----|
|-11-13-14----------------------------14----13-|
|----------------------------------------------| 3x

|-----------------------------------------------|
|----------------------12-11--------------------|
|----------------------------13-11-13-10---13---|
|----------11-13-11-13-------------------13-----|
|-11-13-14--------------------------------------|
|-----------------------------------------------| 1x

 Verse II

  E       A/C#     D       G5
  Laws of Men  Are Just Pretend
       E          A/C#    D   G5
  They Ain't Mine------
  E       A/C#     D       G5
  Love So Good     Love So Bad
    E        A/C#        D       G5
 It Won't Die----------- Aaaahaaaaaa

 Lead guitar II (over 'Love So Good')
|--------------------------------------------------------|
|--------------------------------------12/16-16-16-12~~--|
|-11/13v--15-16v~/10----10/11v-11-10-8-------------------|
|--------------------------------------------------------|
|--------------------------------------------------------|
|--------------------------------------------------------|
 (over 'It Won't Die')
|--------------------------------------------------|
|-9~---11-12v~--/6v~~----6/7v-7v/6--12v-12v-11v~~~-|
|--------------------------------------------------|
|--------------------------------------------------|
|--------------------------------------------------|
|--------------------------------------------------|

  E            A/C#       D       G5
 Some Talk Too Long  They Know It All
            E     A/C#          D      G5
 And I Just Smile----- and Move On------

 Lead (over 'Some Talk Too Long')
|-------------------------------------------------------------------|
|--------------------------------------12/16-16-16-16-12-12-12-12~--|
|-11/13v--15-16v~/10----10/11v-11-10-8------------------------------|
|-------------------------------------------------------------------|
|-------------------------------------------------------------------|
|-------------------------------------------------------------------|

|----------------------------------------------------------------|
|-9~---11-12v~--/6v~~----6/7v-7v/6--16-16-16-16-14-14-14-14-9~~~-|
|----------------------------------------------------------------|
|----------------------------------------------------------------|
|----------------------------------------------------------------|
|----------------------------------------------------------------|

 (on this next part, strum each chord once and let it ring)
 
E            A/C#      D       G5
 Words Ain't Free Like You and Me
   E          A/C#    D         G5 (once you get to the G strum hard)
 I Don't Mind------   Aaaaaaaaaaaaaaaah

Chorus II

guitar I & II

 Em                               C
 Why'd You Have to Be So Mean and Cruel
                              A
 The Dogs Are Loose I'm On to You
               Em                                  E 
 You Broke the Chain That Gets Us from the Dawn to Dusk
                                  C
 Can't Call it Leavin' Cause It's Just
              A
 I Never----- Came
              C
 I Never----- Came
              A
 I Never----- Came
              C
 I Never----- Came
              A
 I Never----- Came
              E
 I Never----- Came

Chorus Lead (guitar II)
|--10-10-10-10-9-9-9-9-12-12-12-12-10-10-10-10-5~--|
|--------------------------------------------------|
|--------------------------------------------------|
|--------------------------------------------------|
|--------------------------------------------------|
|--------------------------------------------------|

Verse riff again (guitar I) 8x
 Lead (guitar II)
|----------------------------------------------|
|----------------------------------------------|
|----------------------11-10-------------------|
|----------11-13-11-13-------13-11-13----13----|
|-11-13-14----------------------------14----13-|
|----------------------------------------------| 2x

|-----------------------------------------------|
|----------------------12-11--------------------|
|----------------------------13-11-13-10-13-----|
|----------11-13-11-13-----------------------13-|
|-11-13-14--------------------------------------|
|-----------------------------------------------| 2x
 
Outro Lead
|---------------------------------------------------|
|-9~~~-11-12-11~~~--14~~~-12~~~-16~~~~-12~~~~-9~~~~-|
|-x-----x--x--x------x-----x-----x------x-----x-----|
|-6~~~--8--9--8-----11-----9----13------9-----6-----|
|---------------------------------------------------|
|---------------------------------------------------| 2x

SOMEONE'S IN THE WOLF transcribed by Todd Dalrymple, yyz91908@yahoo.com

:Intro:

Guitar 1 (Heavy Distortion)
e|----------------------------------------------|
B|----------------------------------------------|
G|----------------------------------------------|
D|----------------------------------------------|
A|---4-----4-----4---4---4----------------------|
E|-----3-3---3-3---3---3---3-3------------------|

Guitar 2
e|---10----10----10--10--10---------------------|
B|------8-----8----8---8---8--------------------|
G|----------------------------------------------|
D|----------------------------------------------|
A|----------------------------------------------|
E|----------------------------------------------| x2

Guitar 1
e|----------------------------------------------|
B|-8888-10-10--11111111-14-14-------------------|
G|-xxxx-x--x----x-x-x-x--x--x-------------------|
D|-5555-7--7----8-8-8-8-11-11-------------------|
A|----------------------------------------------|
E|----------------------------------------------| x2

Guitar 1
e|----------------------------------------------|
B|-8888-10101010-11111111-14141414--------------|
G|-xxxx--x-x-x-x--x-x-x-x--x-x-x-x--------------|
D|-5555--7-7-7-7--8-8-8-8-11111111--------------|
A|----------------------------------------------|
E|----------------------------------------------|

Guitar 2
e|----------------------------------------------|
B|-6666-7777-8888-10101010----------------------|
G|-xxxx-xxxx-xxxx--x-x-x-x----------------------|
D|-3333-4444-5555--7-7-7-7----------------------|
A|----------------------------------------------|
E|----------------------------------------------| x2

Guitars 1&2
e|----------------------------------------------|
B|----------------------------------------------|
G|----------------------------------------------|
D|----------------------------------------------|
A|---4-----4-----4---4---4----------------------|
E|-----3-3---3-3---3---3---3-3------------------| x2

:Verse 1:

Guitar 1
e|----------------------------------------------|
B|----------------------------------------------|
G|----------------------------------------------|
D|----------------------------------------------|
A|---------4-------------4-------------4--------|
E|-3-3-3-3----3--3-3-3-3----3--3-3-3-3----3-----|

Guitar 2
e|----------------------------------------------|
B|----------------------------------------------|
G|---------6-------------6----------------------|
D|-5-5-5-5----5--5-5-5-5----5--5-5-5-5----------|
A|----------------------------------------------|
E|----------------------------------------------|

Guitar 1&2
e|----------------------------------------------|
B|----------------------------------------------|
G|-6-6-6-4---4-6--------------------------------|
D|---------5-----5------------------------------|
A|----------------------------------------------|
E|----------------------------------------------| x6

:Bridge 1: (use above verse riff to smoothly transition into bridge)

Guitar 1&2
e|---------7---9-9-9-9-7--9-9-9-9-7-------------|
B|-----6/8---8----------------------------------|
G|---6------------------------------------------|
D|-5--------------------------------------------|
A|----------------------------------------------|
E|----------------------------------------------|

Guitar 1
e|-9-9-9-7--------------------------------------|
B|---------7-8----------------------------------|
G|-------------6--------------------------------|
D|---------------9------------------------------|
A|----------------------------------------------|
E|----------------------------------------------| x2

:Verse 2:

-Same as Verse 1 except the following change at (~1:40) and 
 this verse is played only 4x


Guitar 1 (1:40)
e|----------------------------------------------|
B|----------------------------------------------|
G|----------------------------------------------|
D|----------------------------------------------|
A|---------4-------------4-------------4--------|
E|-3-3-3-3----3--3-3-3-3----3--3-3-3-3----3-----|

Guitar 2
e|----------------------------------------------|
B|----------------------------------------------|
G|---------9-------------9-------------9--------|
D|-5-5-5-5----5--5-5-5-5----5--5-5-5-5----5-----|
A|----------------------------------------------|
E|----------------------------------------------|

Guitar 1
e|----------------------------------------------|
B|----------------------------------------------|
G|-6-6-6-4---4-6--------------------------------|
D|---------5-----5------------------------------|
A|----------------------------------------------|
E|----------------------------------------------|

Guitar 2
e|-9-9-9-7-6-7-9-7------------------------------|
B|----------------------------------------------|
G|----------------------------------------------|
D|----------------------------------------------|
A|----------------------------------------------|
E|----------------------------------------------| x1

:Bridge 2:

Guitar 1&2 (Guitar 2 first two times)
e|---------7---9-9-9-9-7--9-9-9-9-7-------------|
B|-----6/8---8----------------------------------|
G|---6------------------------------------------|
D|-5--------------------------------------------|
A|----------------------------------------------|
E|----------------------------------------------|

Guitar 1&2 (Guitar 2 first two times)
e|-9-9-9-7--------------------------------------|
B|---------7-8----------------------------------|
G|-------------6--------------------------------|
D|---------------9------------------------------|
A|----------------------------------------------|
E|----------------------------------------------| x4

Guitar 2 (Harmonized over Guitar 1 third time)
e|---------7----12-12-12-12-10------------------|
B|-----6/8---8----------------------------------|
G|---6------------------------------------------|
D|-5--------------------------------------------|
A|----------------------------------------------|
E|----------------------------------------------|

Guitar 2
e|-12-12-12-12-10--12-12-12-10------------------|
B|-----------------------------7-8--------------|
G|---------------------------------6------------|
D|-----------------------------------9----------|
A|----------------------------------------------|
E|----------------------------------------------| x1

Guitar 2 (Harmonized over Guitar 1 fourth time)
e|---------7----12-12-12-12-14------------------|
B|-----6/8---8----------------------------------|
G|---6------------------------------------------|
D|-5--------------------------------------------|
A|----------------------------------------------|
E|----------------------------------------------| 

Guitar 2
e|-12-12-12-12-14--12-12-12-14--12-12-12-10-----|
B|----------------------------------------------|
G|----------------------------------------------|
D|----------------------------------------------|
A|----------------------------------------------|
E|----------------------------------------------|

Guitar 2
e|-9-10-12-10-----------------------------------|
B|----------------------------------------------|
G|----------------------------------------------|
D|----------------------------------------------|
A|----------------------------------------------|
E|----------------------------------------------| x1

:Chorus:

Guitar 1
e|----------------------------------------------|
B|-7-10--7/3------------------------------------|
G|-----------10---------------------------------|
D|--------------------12-------11-------9-------|
A|--------------10-10----10-10----10-10---10-10-|
E|----------------------------------------------|

Guitar 2
e|-----------13---------------------------------|
B|-7-10--7/3----------15-------14-------12------|
G|--------------12-12----12-12----12-12----12-12|
D|----------------------------------------------|
A|----------------------------------------------|
E|----------------------------------------------| x4

:Bridge Harmonies:

Guitar 1
e|----------------------------------------------|
B|-8888-10-10--11111111-14-14-------------------|
G|-xxxx-x--x----x-x-x-x--x--x-------------------|
D|-5555-7--7----8-8-8-8-11-11-------------------|
A|----------------------------------------------|
E|----------------------------------------------| x2

Guitar 1
e|----------------------------------------------|
B|-8888-10101010-11111111-14141414--------------|
G|-xxxx--x-x-x-x--x-x-x-x--x-x-x-x--------------|
D|-5555--7-7-7-7--8-8-8-8-11111111--------------|
A|----------------------------------------------|
E|----------------------------------------------|

Guitar 2
e|----------------------------------------------|
B|-6666-7777-8888-10101010----------------------|
G|-xxxx-xxxx-xxxx--x-x-x-x----------------------|
D|-3333-4444-5555--7-7-7-7----------------------|
A|----------------------------------------------|
E|----------------------------------------------| x2

Guitar 1 
e|----------------------------------------------|
B|-14-15--15-14--14-15--------------------------|
G|---------------------11-12--------------------|
D|---------------------------11-10--------------|
A|----------------------------------------------|
E|----------------------------------------------| x4

Guitar 2
e|-16-17--17------------------------------------|
B|-----------18--17-17-17-18--------------------|
G|--------------------------18-19---------------|
D|----------------------------------------------|
A|--------------------------------20------------|
E|-----------------------------------19---------| x2

:Verse 3:

-Guitar 1 plays normal verse
-Played 6x as a whole

Guitar 2 (Played 1st, 2nd, 3rd, 4th,& 6th times)
e|---------10------------10------------10-------|
B|-8-8-8-8----8--8-8-8-8----8--8-8-8-8----8-----|
G|----------------------------------------------|
D|----------------------------------------------|
A|----------------------------------------------|
E|----------------------------------------------|

Guitar 2
e|-10-10-10-8---8-10----------------------------|
B|------------8------8--------------------------|
G|----------------------------------------------|
D|----------------------------------------------|
A|----------------------------------------------|
E|----------------------------------------------| x5

Guitar 2 (3:23 - Played 5th time)
e|---------12^------------12^------------12^----|
B|-8-8-8-8-----8--8-8-8-8-----8--8-8-8-8-----8--|
G|----------------------------------------------|
D|----------------------------------------------|
A|----------------------------------------------|
E|----------------------------------------------|

e|-12^13^13^13^13^12-10-------------------------|
B|----------------------8-----------------------|
G|----------------------------------------------|
D|----------------------------------------------|
A|----------------------------------------------|
E|----------------------------------------------| x1

:Bridge 3:

-Same as Bridge 2

:Verse 4:

Guitar 2 (4:10)
e|-------------10---------------10--------------|
B|----------------8----------------8------------|
G|-------10-12------------10-12-----------------|
D|----12---------------12-----------------------|
A|-10---------------10--------------------------|
E|----------------------------------------------|

e|-------------10---10-10-10-8---8-10-----------|
B|----------------8------------8------8---------|
G|-------10-12----------------------------------|
D|----12----------------------------------------|
A|-10-------------------------------------------|
E|----------------------------------------------|

:Interlude:

-Here's a rough go at the end of it when the vocals re-enter
-Use a slide
-[] denotates harmonic

Guitar 1
e|----------------------------------------------|
B|-7-10--7/3--[5]-------------------------------|
G|----------------------------------------------|
D|----------------------------------------------|
A|----------------------------------------------|
E|----------------------------------------------|

e|----------------------------------------------|
B|-7-10--7/3--5----[5]--------------------------|
G|----------------------------------------------|
D|----------------------------------------------|
A|----------------------------------------------|
E|----------------------------------------------|

e|----------------------------------------------|
B|-7-10--7/3--7----[7]--------------------------|
G|----------------------------------------------|
D|----------------------------------------------|
A|----------------------------------------------|
E|----------------------------------------------|

e|----------------------------------------------|
B|-7-10--7/3------------------------------------|
G|----------------------------------------------|
D|------------10/7-7/6-6/4-4--------------------|
A|----------------------------------------------|
E|----------------------------------------------|

e|----------------------------------------------|
B|-7-10--7/3------------------------------------|
G|-----------*10--------------------------------|
D|--------------------12-------11-------9-------|
A|--------------10-10----10-10----10-10---10-10-|
E|----------------------------------------------| x1

*end slide

:Outro:

Guitar 1
e|----------------------------------------------|
B|-8888-10-10--11111111-14-14-------------------|
G|-xxxx-x--x----x-x-x-x--x--x-------------------|
D|-5555-7--7----8-8-8-8-11-11-------------------|
A|----------------------------------------------|
E|----------------------------------------------| x2

Guitar 1 (Build up speed, obviously)
e|----------------------------------------------|
B|-8888-10101010-11111111-14141414--------------|
G|-xxxx--x-x-x-x--x-x-x-x--x-x-x-x--------------|
D|-5555--7-7-7-7--8-8-8-8-11111111--------------|
A|----------------------------------------------|
E|----------------------------------------------|

Guitar 2
e|----------------------------------------------|
B|-6666-7777-8888-10101010----------------------|
G|-xxxx-xxxx-xxxx--x-x-x-x----------------------|
D|-3333-4444-5555--7-7-7-7----------------------|
A|----------------------------------------------|
E|----------------------------------------------| x16

Guitar 1
e|----------------------------------------------|
B|----------------------------------------------|
G|----------------------------------------------|
D|----------------------------------------------|
A|---4-----4-----4---4---4----------------------|
E|-----3-3---3-3---3---3---3-3------------------|

Guitar 2
e|---10----10----10--10--10---------------------|
B|------8-----8----8---8---8--------------------|
G|----------------------------------------------|
D|----------------------------------------------|
A|----------------------------------------------|
E|----------------------------------------------| x2

Guitar 1 
e|----------------------------------------------|
B|-14-15--15-14--14-15--------------------------|
G|---------------------11-12--------------------|
D|---------------------------11-10--------------|
A|----------------------------------------------|
E|----------------------------------------------|

Guitar 2
e|-16-17--17------------------------------------|
B|-----------18--17-17-17-18--------------------|
G|--------------------------18-19---------------|
D|----------------------------------------------|
A|--------------------------------20------------|
E|-----------------------------------19---------| x2

THE BLOOD IS LOVE transcribed by tylersugarcarlo

standard tuning

Intro solo (light distortion, low tone and reverb)
|-10-12-13-12--10-12--10-12-13-15~--9-9--|
|----------------------------------------|
|----------------------------------------|
|----------------------------------------|
|----------------------------------------|
|----------------------------------------|

Rhythm (low fuzz)
|------------------------------------------------|
|----12-9----------12-9--------11-8------11-8----|
|---------9-------------9-----------9---------9--|
|------------------------------------------------|
|------------------------------------------------|
|------------------------------------------------|

 Solo
|-9-10-12-12~-----10-9-10-12-10-9-7-9-10-7~--6-7-9-7-6-7~~---|
|------------------------------------------------------------|
|------------------------------------------------------------|
|------------------------------------------------------------|
|------------------------------------------------------------|
|------------------------------------------------------------|

 Rhythm
|------------------------------------------------------------|
|-----------12-11---------12-11----------10-9--------10-9----|
|-----------------9-------------9-------------9-----------9--|
|------------------------------------------------------------|
|------------------------------------------------------------|
|------------------------------------------------------------|

Solo
|------------------9v~------------6-7-9v~------------6-7-9-7-6--|
|-9v-9v~--9-11-12-------8v-8v~--8----------7v-7v~--7------------|
|---------------------------------------------------------------|
|---------------------------------------------------------------|
|---------------------------------------------------------------|
|---------------------------------------------------------------|

Rhythm
|---------------------------------------------------------------|
|---12-9-------12-9-----11-8--------11-8------12--------12------|
|--------9----------9--------9-----------9-------11-9------11-9-|
|---------------------------------------------------------------|
|---------------------------------------------------------------|
|---------------------------------------------------------------|

Solo
|------------------------------------------------------------|
|------------------------------------------------------------|
|-10v-9-10v-9-10v-9-10-9-10-9-10p9h10p9h10p9h10p9h10p9h10p9--|
|------------------------------------------------------------|
|------------------------------------------------------------|
|------------------------------------------------------------|

Rhythm
|------------------------------------------------------------|
|---12-----------12-------------12---------------12----------|
|------9-10---------9-10-----------9-10-------------9-10-----|
|------------------------------------------------------------|
|------------------------------------------------------------|
|------------------------------------------------------------|

Main Riff
Guitar 1 Heavy Distortion
|------------------------------------------------------------------------|
|------------------------------------------------------------------------|
|-----------12-12-----------12-12----------------------------------------|
|--12-12----12-12---12-12---12-12-----8--8----11-11------8--8-----11-11--|
|--10-10----10-10---10-10---10-10-----9--9-----9--9------9--9------9--9--|
|-0-----0-0------0-0-----0-0-------0-0-----0-0-----0-0-------0-0---------|

Slide Lead
|--------------------------------------------------------------------------|
|//12~~~~~~~~~~~~~~~~~~--------------/11~~~~~~~~~~~~~~~~~------------------|
|--------------------------------------------------------------------------|
|--------------------------------------------------------------------------|
|--------------------------------------------------------------------------|
|--------------------------------------------------------------------------|

|-------------------------------------------------|
|-------------------------------------------------|
|---(4)---(4)---(4)---(4)-------------------------|
|--5-5---5-5---5-5---5-5---7-7---5-5---7-7---5-5--|
|--5-5---5-5---5-5---5-5---4-4---4-4---4-4---4-4--|
|-0---0-0---0-0---0-0---0-0---0-0---0-0---0-0-----|

|-------------------------------------------------|
|-/12/14/15~~~~~~~~~~~~~\14~~~~~~~~~~~~~~/15/17/--|
|-------------------------------------------------|
|-------------------------------------------------|
|-------------------------------------------------|
|-------------------------------------------------|

|-------------------------------------------------|
|-------------------------------------------------|
|---(5)---(3)---(5)---(3)-------------------------|
|--5-5---5-5---5-5---5-5---2-2---0-0---2-2---0-0--|
|--3-3---3-3---3-3---3-3---1-1---1-1---1-1---1-1--|
|-0---0-0---0-0---0-0---0-0---0-0---0-0---0-0-----|

|-------------------------------------------------|
|-\18~~~~~~~~~~~~~~~~///\\\11^~~~~~~~~~~~~~~~~~~--|
|-------------------------------------------------|
|-------------------------------------------------|
|-------------------------------------------------|
|-------------------------------------------------| 
2x no vocals ^^^^^

Verse: 
Guitar I still plays the above rhythm
Guitar II plays for the first bar (only done once in the song)  

                  Saw   You  in  a  Way---------  Beyond--- Figure  
|-------------------------------------------------------------------|
|-------------------------------------------------------------------|
|-------------------------------------------------------------------|
|-------------------------------------------------------------------|
|----7-10^---7--------7-10^----7-------7-10^----7----7-10^----7-----|
|-10------10-------10-------10-------9-------9-----9--------9-------|

Slide
|----------------------------------------------------------------------|
|-8v~~~~~----------------------------7v~~~~~~~~~~----------------------|
|----------------------------------------------------------------------|
|----------------------------------------------------------------------|
|----------------------------------------------------------------------|
|----------------------------------------------------------------------|

 Out--------     These Lines------ of Life--- Have Been Drawn & Can't Be
|-------------------------------------------------------------------|
|-------------------------------------------------------------------|
|-------------------------------------------------------------------|
|-------------------------------------------------------------------|
|----7-10^---7--------7-10^----7-------7-10^----7----7-10^----7-----|
|-10------10-------10-------10-------9-------9-----9--------9-------|

|----------------------------------------------------------------------|
|----------------------------------------------------------------------|
|-7v~~~~~~~---------------------------6v~~~~~~~~~~~~~~~----------------|
|----------------------------------------------------------------------|
|----------------------------------------------------------------------|
|----------------------------------------------------------------------|

 Removed, Our Eyes is All it Took to Know
|-------------------------------------------------------|
|-------------------------------------------------------|
|-------------------------------------------------------|
|-------------------------------------------------------|
|---7-10^---7----7-10^---7------7-10^---7----7-10^---7--|
|-8-------8----8-------8------6-------6----6-------6----|

|-------------------------------------------------------|
|-------------------------------------------------------|
|-5v~~~~~~~~~------------------9v~~~~~~~~~~-------------|
|-------------------------------------------------------|
|-------------------------------------------------------|
|-------------------------------------------------------|

Guitar II stops for a while
Slide Plays Same Lead as Above

                   Open-- Up Your-- Eyes----          Deep Blue Glassy La--
                   Open-- Up Your Mouth---           & Touch Your Lips to    
|------------------------------------------------------------------------|
|------------------------------------------------------------------------|
|-----------12-12-----------12-12----------------------------------------|
|--12-12----12-12---12-12---12-12-----8--8----11-11------8--8-----11-11--|
|--10-10----10-10---10-10---10-10-----9--9-----9--9------9--9------9--9--|
|-0-----0-0------0-0-----0-0-------0-0-----0-0-----0-0-------0-0---------|

 --ke,  & Swim Till Water & Sky Now Are One, Out of
  Mine That We May Make a Kiss That Can Pierce Through Death
|-------------------------------------------------|
|-------------------------------------------------|
|---(4)---(4)---(4)---(4)-------------------------|
|--5-5---5-5---5-5---5-5---7-7---5-5---7-7---5-5--|
|--5-5---5-5---5-5---5-5---4-4---4-4---4-4---4-4--|
|-0---0-0---0-0---0-0---0-0---0-0---0-0---0-0-----|

 Two----    Oh My Bloodshot Eyes---------  
 & Survive Your Words Have Branded My Mind 
|-------------------------------------------------|
|-------------------------------------------------|
|---(5)---(3)---(5)---(3)-------------------------|
|--5-5---5-5---5-5---5-5---2-2---0-0---2-2---0-0--|
|--3-3---3-3---3-3---3-3---1-1---1-1---1-1---1-1--|
|-0---0-0---0-0---0-0---0-0---0-0---0-0---0-0-----|

Interlude

Guitar I
|----------------------------------------------------|
|----------------------------------------------------|
|----------------------------------------------------|
|----9~---9~----8\---8\---11\---11\---11\------/(9)--|
|----7~---7~----6\---6\----9\----9\----9\------/(7)--|
|--0----0-----0----0-----0-----0-----0---------------|

Guitar II (same circus-ish guitar from intro solo)
|---------------------------10-12-12-12-12-10-9--------|
|---12v~--12v/11v~-11v~/14~---------------------9v~~---|
|------------------------------------------------------|
|------------------------------------------------------|
|------------------------------------------------------|
|------------------------------------------------------|

|--------------------------------------------------|
|--------------------------------------------------|
|--------------------------------------------------|
|---13\---13\---12\---12\---11\---11~---10/---10/--|
|---11\---11\---10\---10\----9\----9~----8/----8/--|
|-------0-----0-----0-----0-----0-----0-----0------|

|--------------------------------------------------|
|----9v~-----12-11v~~~-----------------------------|
|---------------------------11v~~-11----10v~~-10---|
|--------------------------------------------------|
|--------------------------------------------------|
|--------------------------------------------------|

|-----------------------------|
|-----------------------------|
|-----------------------------|
|----7~---7~---7/---7///(12)--|
|----5~---5~---5/---5///(10)--|
|--0----0----0----0-----------|

|--------------------------|
|--------------------------|
|---7v~~~~~~~~7~~~~~~~~~~--|
|--------------------------|
|--------------------------|
|--------------------------|


Verse II (slight changes, so pay attention)
Slide is mostly same, a few changes

                   Still I Hold Your Hand                Wrapped as If a  
                   Every Breathe an Art                 The Dignity to Learn
|------------------------------------------------------------------------|
|------------------------------------------------------------------------|
|-----------12-12-----------12-12----------------------------------------|
|--12-12----12-12---12-12---12-12-----8--8----11-11------8--8-----11-11--|
|--10-10----10-10---10-10---10-10-----9--9-----9--9------9--9------9--9--|
|-0-----0-0------0-0-----0-0-------0-0-----0-0-----0-0-------0-0---------|
  
1.Ring      We of Flesh & Blood       Are Only-- 
2.It  Can Strain and Break Your Heart        Take
|-------------------------------------------------|
|-------------------------------------------------|
|---(4)---(4)---(4)---(4)-------------------------|
|--5-5---5-5---5-5---5-5---7-7---5-5---7-7---5-5--|
|--5-5---5-5---5-5---5-5---4-4---4-4---4-4---4-4--|
|-0---0-0---0-0---0-0---0-0---0-0---0-0---0-0-----|

1. Carrying---  It's So Hard To---        Well, You   
|--------------------------------------------------|
|--------------------------------------------------|
|---(5)---(3)---(5)---(3)---(5)---(3)---(5)---(3)--|
|--5-5---5-5---5-5---5-5---5-5---5-5---5-5---5-5---|
|--3-3---3-3---3-3---3-3---3-3---3-3---3-3---3-3---|
|-0---0-0---0-0---0-0---0-0---0-0---0-0---0-0------|
                                              
   Know                 The Seed Waits for the Reaper to Sew
|------------------------------------------------------------------------|
|------------------------------------------------------------------------|
|------------------------------------------------------------------------|
|--2-2---0-0---2-2---0-0---5-5---5-5---5-5---5-5---2-2---0-0---2-2---0-0-|
|--1-1---1-1---1-1---1-1---3-3---3-3---3-3---3-3---1-1---1-1---1-1---1-1-|
|-0---0-0---0-0---0-0---0-0---0-0---0-0---0-0---0-0---0-0---0-0---0-0----|

Slide
|------------------------------------------------------------------------|
|------------------------------------------------------------------------|
|-3v~~~~------/9/12v~----/9v~----------/12-----/15v~-14-12v~--10-12v~~---|
|------------------------------------------------------------------------|
|------------------------------------------------------------------------|
|------------------------------------------------------------------------|

2.All------               Your Pieces Home    You 
|-------------------------------------------------|
|-------------------------------------------------|
|---(5)---(3)---(5)---(3)-------------------------|
|--5-5---5-5---5-5---5-5---2-2---0-0---2-2---0-0--|
|--3-3---3-3---3-3---3-3---1-1---1-1---1-1---1-1--|
|-0---0-0---0-0---0-0---0-0---0-0---0-0---0-0-----|

Slide
|-------------------------------------------------|
|-------------------------------------------------|
|-5v~~~~------------------10v~~----9v-7v~~--------|
|-------------------------------------------------|
|-------------------------------------------------|
|-------------------------------------------------|

  Ask---- When-- You're-- Alone--      "What is    
|--------------------------------------------------|
|--------------------------------------------------|
|---(5)---(3)---(5)---(3)---(5)---(3)---(5)---(3)--|
|--5-5---5-5---5-5---5-5---5-5---5-5---5-5---5-5---|
|--3-3---3-3---3-3---3-3---3-3---3-3---3-3---3-3---|
|-0---0-0---0-0---0-0---0-0---0-0---0-0---0-0------|

|-------------------------------------------------|
|-------------------------------------------------|
|--9v~~~~~~---------------------------------12v~~-|
|-------------------------------------------------|
|-------------------------------------------------|
|-------------------------------------------------|

   Love?"               The Blood----------------------------------- Is 
|--------------------------------------------------------------------------|
|--------------------------------------------------------------------------|
|---------------------------(5)---(3)---(5)---(3)--(5)----(3)---(5)---(3)--|
|--2-2---0-0---2-2---0-0---5-5---5-5---5-5---5-5---5-5---5-5---5-5---5-5---|
|--1-1---1-1---1-1---1-1---3-3---3-3---3-3---3-3---3-3---3-3---3-3---3-3---|
|-0---0-0---0-0---0-0---0-0---0-0---0-0---0-0---0-0---0-0---0-0---0-0------|
  
|------------------------------------------------------------------------|
|------------------------------------------------------------------------|
|-15v~~~~--14v~-12v-10v--9v~~~~~~~~~~~~~~~~~~~~~~~~~~~~~~~~~~~~~---------|
|------------------------------------------------------------------------|
|------------------------------------------------------------------------|
|------------------------------------------------------------------------|

   Love
|---------------------------------------------------|
|---------------------------------------------------|
|---------------------------------------------------|
|--2-2---0-0---2-2---0-0---2-2---0-0---2-2---0-0----|
|--1-1---1-1---1-1---1-1---1-1---1-1---1-1---1-1----|
|-0---0-0---0-0---0-0---0-0---0-0---0-0---0-0----0--|

|--------------------------------------------------------------------|
|--------------------------------------------------------------------|
|-15v~~-----9v~~~--7v~~---15v~~~~~~~~~~~~~~~~~~~~~~~~~~~~~~~~~~~~----|
|--------------------------------------------------------------------|
|--------------------------------------------------------------------|
|--------------------------------------------------------------------|

Verse End (slide still ringing out on the A# note)
|-------------------------------------------------------------|
|-------------------------------------------------------------|
|-------------------------------------------------------------|
|-2-0-2-0-2-0--2-0----2--0-----2---0-----2----0------2^~~\\\--|
|----1---1---1-----1-------1---------1----------1-------------|
|-------------------------------------------------------------|

Outro:

Main riff alone 1x
On 2nd time slide enters

|------------------------------------------------------------------------|
|------------------------------------------------------------------------|
|-----------12-12-----------12-12----------------------------------------|
|--12-12----12-12---12-12---12-12-----8--8----11-11------8--8-----11-11--|
|--10-10----10-10---10-10---10-10-----9--9-----9--9------9--9------9--9--|
|-0-----0-0------0-0-----0-0-------0-0-----0-0-----0-0-------0-0---------|

Slide Lead
|--------------------------------------------------------------------------|
|//12~~~~~~~~~~~~~~~~~~--------------/11~~~~~~~~~~~~~~~~~------------------|
|--------------------------------------------------------------------------|
|--------------------------------------------------------------------------|
|--------------------------------------------------------------------------|
|--------------------------------------------------------------------------|

|-------------------------------------------------|
|-------------------------------------------------|
|---(4)---(4)---(4)---(4)-------------------------|
|--5-5---5-5---5-5---5-5---7-7---5-5---7-7---5-5--|
|--5-5---5-5---5-5---5-5---4-4---4-4---4-4---4-4--|
|-0---0-0---0-0---0-0---0-0---0-0---0-0---0-0-----|

|-------------------------------------------------|
|-/12/14/14~~~~~~~~~~~~~\14~~~~~~~~~~~~~~/15/17/--|
|-------------------------------------------------|
|-------------------------------------------------|
|-------------------------------------------------|
|-------------------------------------------------|

|-------------------------------------------------|
|-------------------------------------------------|
|---(5)---(3)---(5)---(3)-------------------------|
|--5-5---5-5---5-5---5-5---2-2---0-0---2-2---0-0--|
|--3-3---3-3---3-3---3-3---1-1---1-1---1-1---1-1--|
|-0---0-0---0-0---0-0---0-0---0-0---0-0---0-0-----|

|-------------------------------------------------|
|-\19~~~~~~~~~~~~~~~~///\\\11~~~~~~~~~~~~~~~~~~~--|
|-------------------------------------------------|
|-------------------------------------------------|
|-------------------------------------------------|
|-------------------------------------------------| 

*third time it goes basically the same up until the C note

3.  
|--------------------------------------------------|
|--------------------------------------------------|
|---(5)---(3)---(5)---(3)---(5)---(3)---(5)---(3)--|
|--5-5---5-5---5-5---5-5---5-5---5-5---5-5---5-5---|
|--3-3---3-3---3-3---3-3---3-3---3-3---3-3---3-3---|
|-0---0-0---0-0---0-0---0-0---0-0---0-0---0-0------|

|--14v~--------------------------------12/14~v----|
|-------------------------------------------------|
|-------------------------------------------------|
|-------------------------------------------------|
|-------------------------------------------------|
|-------------------------------------------------|

|--------------------------------------------------|
|--------------------------------------------------|
|---(5)---(3)---(5)---(3)---(5)---(3)---(5)---(3)--|
|--5-5---5-5---5-5---5-5---5-5---5-5---5-5---5-5---|
|--3-3---3-3---3-3---3-3---3-3---3-3---3-3---3-3---|
|-0---0-0---0-0---0-0---0-0---0-0---0-0---0-0------|

|--12v~---17----15---14--13v~---17--15--14--12v~--|
|-------------------------------------------------|
|-------------------------------------------------|
|-------------------------------------------------|
|-------------------------------------------------|
|-------------------------------------------------|

|--------------------------------------------------|
|--------------------------------------------------|
|---(5)---(3)---(5)---(3)---(5)---(3)---(5)---(3)--|
|--5-5---5-5---5-5---5-5---5-5---5-5---5-5---5-5---|
|--3-3---3-3---3-3---3-3---3-3---3-3---3-3---3-3---|
|-0---0-0---0-0---0-0---0-0---0-0---0-0---0-0------|

|--------15--14--12--10---14\--12\--11/-12v~~~~~~~~~~~~~~~--|
|-----------------------------------------------------------|
|-----------------------------------------------------------|
|-----------------------------------------------------------|
|-----------------------------------------------------------|
|-----------------------------------------------------------|

|--------------------------|
|--------------------------|
|--------------------------|
|---2-2---0-0---2-2---0-0--|
|---1-1---1-1---1-1---1-1--|
|-0------------------------|

SKIN ON SKIN transcribed by Andrew Zara

Intro/Verses 0:00
E:----------------------------------------|
G:----------------------------------------|
B:----------------------------------------|
D:--6~~-----------------------------------|
A:--6~~-----------------------------------|
E:--4~~-3-4-5-4-<5>-<5>--3-4-5-4-<4>-<4>--|
  There are a few fills and differences which are just some random bends and stuff
  with the wah pedal

 Chorus/Bridge/I Dono 1:07
E:---------------------------------------|
G:---------------------------------------|
B:---------------------------------------|
D:---------------------------------------|
A:----------^-^----------^-^-------------|
E:--3-4-5-5-5-5--3-4-5-4-4-4-------------|


 Solo 1:38
E:-----------^^^^------^^------------------------------------|
B:--7-8-9-7-999999-7-10b(12)-8~-7h8------------------------7-|
G:----------------------------------8~-8--8-9--8--9--8--9-8--|
D:--------------------------------------10------10----10-----|
A:-----------------------------------------------------------|
E:-----------------------------------------------------------|
        ^ ^^      ^        ^^
E:------x-11b(12)-x-------11b(12)-11-11-9------------------------|
B:----6-x---------x9h11p9-----------------11~-11b(12)-etc.-------|
G:-6h8-------------------------------------------------mad-------|
D:------------------------------------------------------wah------|
A:-------------------------------------------------------for-a---|
E:--------------------------------------------------------while--|
  This a rough go at the solo. Its just mad wah and bends around this general shape.
  Its hard to tab it perfectly because it seems like it was just a very spur of the
  moment thing in the studio.

BROKEN BOX transcribed by CamdenGuitarist

Chords used:

A 5776XX
D X577XX 
C X355XX
B X244XX
G 3554XX
-----------------

And you know this

A
I've got wine

And so do you
     D
Mine came with a cork
                 A      
I wish yours did too

A
Everyone

Just loves you so
        D
Well hurray, yay
                      A  
Now you know where to go

A     G                    D   
In my head you'r all brand new
                           A
I guess you really are the same
A     G                    D   
In my head you'r all brand new
                          A 
Tell your new boy where I came
A     G                    D   
In my head you'r all brand new
                            A
I just didn't want what you gave
A     G                    D   
In my head you'r all brand new
                             A 
Go and find yourself another slave

D       C       B       G         A  
Tut tut tut tut tut tut there you are
D       C       B       G         A  
Tut tut tut tut tut tut there you are
D       C       B       G         A  
Tut tut tut tut tut tut there you are
D       C       B       G  
Tut tut tut tut tut tut 

A
Do you hear that man

That's some crazy motherfucking shit

A
Oh you're so in love

Just like Julliet
           D 
Well guess what 
                                          A 
That's one thing that you can for-fucking-get

A
Tears from the sky

In pools of pain
            D 
Well baby tonight
                              A
I'm gonna go and dance in the rain

A     G                    D   
In my head you'r all brand new
                           A
I guess you really are the same
A     G                    D   
In my head you'r all brand new
                          A 
Tell your new boy where I came
A     G                    D   
In my head you'r all brand new
                           A
Take that broken pussy elsewhere
A     G                    D   
In my head you'r all brand new
                     A
Save it baby I don't care

A

YOU GOT A KILLER SCENE THERE, MAN 

Can't find a tab, i might transcribe it later.

LONG SLOW GOODBYE transcribed by elavaidor_akd

*INTRO:
Gtr 1 (Clean)
e|-0-0-0-0-0-0-0-0-|-0-0-0-0-0-0-0-0-|-0-0-0-0-0-0-0-0-0-|-0-0-0-0-0-0-0-0-|
B|-0-0-0-0-0-0-0-0-|-0-0-0-0-0-0-0-0-|-0-0-0-0-0-0-0-0-0-|-0-0-0-0-0-0-0-0-|
G|-1-1-1-1-1-1-1-1-|-1-1-1-1-1-1-1-1-|-1-1-1-1-1-1-1-1-1-|-1-1-1-1-1-1-1-1-|
D|-2-2-2-2-2-2-2-2-|-2-2-2-2-2-2-2-2-|-2-2-2-2-2-2-2-2-2-|-2-2-2-2-2-2-2-2-|
A|-2-2-2-2-2-2-2-2-|-2-2-2-2-2-2-2-2-|-2-2-2-2-2-2-2-2-2-|-2-2-2-2-2-2-2-2-|
E|-0-0-0-0-0-0-0-0-|-0-0-0-0-0-0-0-0-|-0-0-0-0-0-0-0-0-0-|-0-0-0-0-0-0-0-0-|


*VERSE:
Gtr 1 (Clean)
e|-0-0-0-0-0-0-0-0-|-0-0-0-0-0-0-0-0-|-0-0-0-0-0-0-0-0-0-|-0-0-0-0-0-0-0-0-|
B|-0-0-0-0-0-0-0-0-|-0-0-0-0-0-0-0-0-|-0-0-0-0-0-0-0-0-0-|-0-0-0-0-0-0-0-0-|
G|-1-1-1-1-1-1-1-1-|-1-1-1-1-1-1-1-1-|-1-1-1-1-1-1-1-1-1-|-1-1-1-1-1-1-1-1-|
D|-2-2-2-2-2-2-2-2-|-2-2-2-2-2-2-2-2-|-2-2-2-2-2-2-2-2-2-|-2-2-2-2-2-2-2-2-|
A|-2-2-2-2-2-2-2-2-|-2-2-2-2-2-2-2-2-|-2-2-2-2-2-2-2-2-2-|-2-2-2-2-2-2-2-2-|
E|-0-0-0-0-0-0-0-0-|-0-0-0-0-0-0-0-0-|-0-0-0-0-0-0-0-0-0-|-0-0-0-0-0-0-0-0-|

e|-0-0-0-0-0-0-0-0-|-3-3-3-3-3-3-3-3-|-2-2-2-2-2-2-2-2-2-|-0-0-0-0-0-0-0-0-|
B|-0-0-0-0-0-0-0-0-|-0-0-0-0-0-0-0-0-|-3-3-3-3-3-3-3-3-3-|-0-0-0-0-0-0-0-0-|
G|-1-1-1-1-1-1-1-1-|-0-0-0-0-0-0-0-0-|-2-2-2-2-2-2-2-2-2-|-1-1-1-1-1-1-1-1-|
D|-2-2-2-2-2-2-2-2-|-0-0-0-0-0-0-0-0-|-0-0-0-0-0-0-0-0-0-|-2-2-2-2-2-2-2-2-|
A|-2-2-2-2-2-2-2-2-|-2-2-2-2-2-2-2-2-|-0-0-0-0-0-0-0-0-0-|-2-2-2-2-2-2-2-2-|
E|-0-0-0-0-0-0-0-0-|-3-3-3-3-3-3-3-3-|-------------------|-0-0-0-0-0-0-0-0-|


*CHORUS 1:
Gtr 1 
e|-0-0-0-0-0-0-0-0-|-----------------|-2-2-2-2-2-2-2-2-2-|-0-0-0-0-0-0-0-0-|
B|-0-0-0-0-0-0-0-0-|-1-1-1-1-1-1-1-1-|-3-3-3-3-3-3-3-3-3-|-0-0-0-0-0-0-0-0-|
G|-1-1-1-1-1-1-1-1-|-0-0-0-0-0-0-0-0-|-2-2-2-2-2-2-2-2-2-|-1-1-1-1-1-1-1-1-|
D|-2-2-2-2-2-2-2-2-|-2-2-2-2-2-2-2-2-|-0-0-0-0-0-0-0-0-0-|-2-2-2-2-2-2-2-2-|
A|-2-2-2-2-2-2-2-2-|-3-3-3-3-3-3-3-3-|-0-0-0-0-0-0-0-0-0-|-2-2-2-2-2-2-2-2-|
E|-0-0-0-0-0-0-0-0-|-----------------|-------------------|-0-0-0-0-0-0-0-0-|
                   "...the long slow goodbye..."

Gtr 2 (Distortion)
e|---7--5b---|---7---|---(7)---|---7---5b---|---(5)---|-------4b-|---8--7--|
B|-----------|-------|---------|------------|---------|---5------|---------|

e|---5--4---|------4---|
B|----------|---5------|

*CHORUS 2:
Gtr 1 
e|-0-0-0-0-0-0-0-0-|-----------------|-2-2-2-2-2-2-2-2-2-|-0-0-0-0-0-0-0-0-|
B|-0-0-0-0-0-0-0-0-|-1-1-1-1-1-1-1-1-|-3-3-3-3-3-3-3-3-3-|-0-0-0-0-0-0-0-0-|
G|-1-1-1-1-1-1-1-1-|-0-0-0-0-0-0-0-0-|-2-2-2-2-2-2-2-2-2-|-1-1-1-1-1-1-1-1-|
D|-2-2-2-2-2-2-2-2-|-2-2-2-2-2-2-2-2-|-0-0-0-0-0-0-0-0-0-|-2-2-2-2-2-2-2-2-|
A|-2-2-2-2-2-2-2-2-|-3-3-3-3-3-3-3-3-|-0-0-0-0-0-0-0-0-0-|-2-2-2-2-2-2-2-2-|
E|-0-0-0-0-0-0-0-0-|-----------------|-------------------|-0-0-0-0-0-0-0-0-|
                   "...the long slow goodbye..."

Gtr 2 (Distortion)
e|------4b---|---(4)---|---5b---|---5--------|---7---5b---|---(5)---|---4b-|
B|---5-------|---------|--------|--------4---|------------|---------|------|

e|---(4)---|
B|---------|

Gtr 1 
e|-0-0-0-0-0-0-0-0-|-----------------|-2-2-2-2-2-2-2-2-2-|-0-0-0-0-0-0-0-0-|
B|-0-0-0-0-0-0-0-0-|-1-1-1-1-1-1-1-1-|-3-3-3-3-3-3-3-3-3-|-0-0-0-0-0-0-0-0-|
G|-1-1-1-1-1-1-1-1-|-0-0-0-0-0-0-0-0-|-2-2-2-2-2-2-2-2-2-|-1-1-1-1-1-1-1-1-|
D|-2-2-2-2-2-2-2-2-|-2-2-2-2-2-2-2-2-|-0-0-0-0-0-0-0-0-0-|-2-2-2-2-2-2-2-2-|
A|-2-2-2-2-2-2-2-2-|-3-3-3-3-3-3-3-3-|-0-0-0-0-0-0-0-0-0-|-2-2-2-2-2-2-2-2-|
E|-0-0-0-0-0-0-0-0-|-----------------|-------------------|-0-0-0-0-0-0-0-0-|
                   "...the long slow goodbye...."

Gtr 2 (Distortion)
e|---7--5b---|---(5)---|---7---|---(7)---|---7---5b---|---(5)---|---7b--|---(7)---|---7---5b---|---(5)---|
B|-----------|---------|-------|---------|---5--------|---------|-------|---------|---5--------|---------|
e|---(7)---|---7---5b---|---(5)---|
B|---------|---5--------|---------|

*BRIDGE
Gtr 1
e|-----------------|-----------------|-----------------|-----------------|
B|-0-0-0-0-0-0-0-0-|-0-0-0-0-0-0-0-0-|-0-0-0-0-0-0-0-0-|-0-0-0-0-0-0-0-0-|
G|-4-4-4-4-4-4-4-4-|-4-4-4-4-4-4-4-4-|-4-4-4-4-4-4-4-4-|-4-4-4-4-4-4-4-4-|
D|-2-2-2-2-2-2-2-2-|-2-2-2-2-2-2-2-2-|-2-2-2-2-2-2-2-2-|-2-2-2-2-2-2-2-2-|
A|-----------------|-----------------|-----------------|-----------------|
E|-----------------|-----------------|-----------------|-----------------|

Gtr 2 (Distortion)
e|--10b--|--(10)--|--7--|--(7)--|--5b--|--12b--12-0--|--(0)--|--7--|--5b--|

e|--(5)--|--10b--|--4--|


*OUTRO
Gtr 1
e|-----------------|-----------------|-----------------|-----------------|
B|-0-0-0-0-0-0-0-0-|-0-0-0-0-0-0-0-0-|-0-0-0-0-0-0-0-0-|-0-0-0-0-0-0-0-0-|
G|-4-4-4-4-4-4-4-4-|-4-4-4-4-4-4-4-4-|-4-4-4-4-4-4-4-4-|-4-4-4-4-4-4-4-4-|
D|-2-2-2-2-2-2-2-2-|-2-2-2-2-2-2-2-2-|-2-2-2-2-2-2-2-2-|-2-2-2-2-2-2-2-2-|
A|-----------------|-----------------|-----------------|-----------------|
E|-----------------|-----------------|-----------------|-----------------|

e|-----|
B|--0--|
G|--4--|
D|--2--|
A|-----|
E|-----|

That's it! Thanks for reading! If i made any mistakes, just pm me.
comments
print report bad tab
5 comments total. Showing first comments.
0 reply
minipancake wrote on May 16 2008, 03:50 pm

are all of these songs in standard?

It only says the tunings for some of the songs, so I'm not sure :P

0 reply
tonedeafidiot wrote on May 16 2008, 09:04 pm

the ones that don't say either way are standard

0 reply
THNDRzoid wrote on January 1 2011, 07:27 pm

Nope, most of these songs are in Josh Homme tuning I think which is proper in "some" songs for the deaf tabs, but these sites are kinda dead, so I don't even know why I'm commenting anyway.
If someone has the proper tabs, with proper tunings, please let us know somehow.

I want to post or [tab]
guest
You may want to rate the tab now too:
select rating
Please do not post tabs as comments. Select "correction" instead!