Oops, an error
Loading. Please wait.

Resistance Tab

ver1
ver1

Whole song

Interactive

More versions @911Tabs.com
1,553 views 1 this week
no commentswrite comment
1 2 3 4 5
excellent!
x 2
Autoscroll
+/-
esc
set tempo
stop
Hey! There's an official Ultimate Guitar app which is ideal
for learning songs when you're away from computer. Get the app
WARNING: You are trying to view
                                    content from Ultimate-Guitar.com
                                    in an unauthorized application,
                                    which is prohibited.

                                    Please use an official Ultimate
                                    Guitar Tabs application for iPhone,
                                    iPad or Android to access legitimate
                                    chords, guitar, bass, and drum tabs
                                    from Ultimate-Guitar.com database.

                                    Type "ultimate guitar tabs" in Apple
                                    App Store's or Android Market's
                                    search to find the application.
                                  Resistance


Lead Guitar

E||-----------------------|--------------------------|----------------------|
B||---------10------------|-----7--------------------|---------10--------9--|
G||-----11------11-----9--|--------9-----7--9-----9--|-----11---------9-----|
D||--9--------------9-----|--7--------7--------9-----|--9----------9--------|
A||-----------------------|--------------------------|----------------------|
E||-----------------------|--------------------------|----------------------|

---------------------------|-----------------------|--------------------------|
---------10--------9/-7----|---------10------------|-----7--------------------|
-----11---------9--9/-7----|-----11------11-----9--|--------9-----7--9-----9--|
--9----------9-------------|--9--------------9-----|--7--------7--------9-----|
---------------------------|-----------------------|--------------------------|
---------------------------|-----------------------|--------------------------|

----------------------|----------------------|-----------------------|
---------10--------9--|--------10------------|---------10------------|
-----11---------9-----|--11------------------|-----11------11-----9--|
--9----------9--------|--12------------------|--9--------------9-----|
----------------------|----------------------|-----------------------|
----------------------|----------------------|-----------------------|

--------------------------|----------------------|----------------------------|
-----7--------------------|---------10--------9--|---------10---------9/-7----|
--------9-----7--9-----9--|-----11---------9-----|-----11-------------9/-7----|
--7--------7--------9-----|--9----------9--------|--9----------9--12----------|
--------------------------|----------------------|----------------------------|
--------------------------|----------------------|----------------------------|

-----------------------|--------------------------|----------------------|
---------10------------|-----7--------------------|---------10--------9--|
-----11------11-----9--|--------9-----7--9-----9--|-----11---------9-----|
--9--------------9-----|--7--------7--------9-----|--9----------9--------|
-----------------------|--------------------------|----------------------|
-----------------------|--------------------------|----------------------|

-------------------|-------------------|-------------------|-------------------|
-------------------|-------------------|-------------------|-------------------|
-------------------|-------------------|-------------------|-------------------|
-------------------|-------------------|-------------------|-------------------|
--7----------------|--7----------------|--7----------------|--7----------------|
-------------------|-------------------|-------------------|-------------------|

------------------------|------------------------|------------------------|
------------------------|------------------------|------------------------|
------------------------|------------------------|------------------------|
-----2--------0h-2------|-----2--------2---------|-----2--------0h-2------|
--------2---------------|--------2--------0------|--------2---------------|
--0--------0------------|--0--------0------------|--0--------0------------|

--------------------|------------------------|------------------------|
--3------3----------|------------------------|------------------------|
--0------2----------|------------------------|------------------------|
--0------0----------|-----2--------0h-2------|-----2--------2---------|
--------------------|--------2---------------|--------2--------0------|
--------------------|--0--------0------------|--0--------0------------|

------------------------|-----------------------|------------------------|
------------------------|-----------------------|------------------------|
------------------------|-----------------------|------------------------|
-----2--------0h-2------|--0-----------2-----2--|-----2--------0h-2------|
--------2---------------|---------0-------------|--------2---------------|
--0--------0------------|-----------------3-----|--0--------0------------|

------------------------|------------------------|-----------------------|
------------------------|------------------------|-----------------------|
------------------------|------------------------|--5--------------------|
-----2--------2---------|-----2--------0h-2------|--5------5----5--------|
--------2--------0------|--------2---------------|--3------5----5--------|
--0--------0------------|--0--------0------------|---------3----3--2--0--|

-----------------------|-----------------------|-----------------------|
-----------------------|-----------------------|-----------------------|
-----9-------7--9------|-----9-------7--9------|-----9-------7--9------|
--------9----7--9------|--------9----7--9------|--------9----7--9------|
--7--------------------|--7--------------------|--7--------------------|
--0--------------------|--0--------------------|--0--------------------|

-----------------------|-----------------------|-----------------------|
-----------------------|-----------------------|-----------------------|
--7------2-------------|-----9-------7--9------|-----9-------7--9------|
--7------2-------------|--------9----7--9------|--------9----7--9------|
--5------0-------------|--7--------------------|--7--------------------|
--------------0--3--0--|--0--------------------|--0--------------------|

-----------------------|--3------5----5--5--5--|------------------|
-----------------------|--3------3----3--3--3--|------------------|
-----9-------7--9------|--0------2----2--2--2--|------------------|
--------9----7--9------|-----------------------|------------------|
--7--------------------|-----------------------|------------------|
--0--------------------|-----------------------|------------------|

------------------|------------------|------------------|------------------|
------------------|------------------|------------------|------------------|
------------------|------------------|------------------|------------------|
------------------|------------------|------------------|------------------|
------------------|------------------|------------------|------------------|
------------------|------------------|------------------|------------------|

------------------|------------------|------------------|------------------|
------------------|------------------|------------------|------------------|
------------------|------------------|------------------|------------------|
------------------|------------------|------------------|------------------|
------------------|------------------|------------------|------------------|
------------------|------------------|------------------|------------------|

------------------|----------------------------|---------------------|
------------------|----12--12--12--10----9---7-|--7------10----------|
------------------|----9---9---9---9-----9---7-|--7------7-----------|
------------------|--------------------------7-|--7------7-----------|
------------------|----------------------------|---------------------|
------------------|----------------------------|---------------------|

----------------------------|---------------------|----------------------------|
----12--12--12--10----9---7-|--7------10----------|----12--12--12--10----9---7-|
----9---9---9---9-----9---7-|--7------7-----------|----9---9---9---9-----9---7-|
--------------------------7-|--7------7-----------|--------------------------7-|
----------------------------|---------------------|----------------------------|
----------------------------|---------------------|----------------------------|

---------------------|----------------------|------------------|
--7------8-----------|--7--7----7------5----|------------------|
--7------9------9----|--4--4----7------2----|------------------|
---------------------|-----------------2----|------------------|
---------------------|-----------------0----|------------------|
---------------------|----------------------|------------------|

------------------------|------------------------|------------------------|
------------------------|------------------------|------------------------|
------------------------|------------------------|------------------------|
-----2--------0h-2------|-----2--------2---------|-----2--------0h-2------|
--------2---------------|--------2--------0------|--------2---------------|
--0--------0------------|--0--------0------------|--0--------0------------|

-----------------------|------------------------|------------------------|
-----------------------|------------------------|------------------------|
-----------------------|------------------------|------------------------|
--0-----------2-----2--|-----2--------0h-2------|-----2--------2---------|
---------0-------------|--------2---------------|--------2--------0------|
-----------------3-----|--0--------0------------|--0--------0------------|

------------------------|-----------------------|-----------------------|
------------------------|-----------------------|-----------------------|
------------------------|--5--------------------|-----9-------7--9------|
-----2--------0h-2------|--5------5----5--------|--------9----7--9------|
--------2---------------|--3------5----5--------|--7--------------------|
--0--------0------------|---------3----3--2--0--|--0--------------------|

-----------------------|-----------------------|-----------------------|
-----------------------|-----------------------|-----------------------|
-----9-------7--9------|-----9-------7--9------|--7------2-------------|
--------9----7--9------|--------9----7--9------|--7------2-------------|
--7--------------------|--7--------------------|--5------0-------------|
--0--------------------|--0--------------------|--------------0--3--0--|

-----------------------|-----------------------|-----------------------|
-----------------------|-----------------------|-----------------------|
-----9-------7--9------|-----9-------7--9------|-----9-------7--9------|
--------9----7--9------|--------9----7--9------|--------9----7--9------|
--7--------------------|--7--------------------|--7--------------------|
--0--------------------|--0--------------------|--0--------------------|

--3------5----5--5--5--|------------------|------------------|
--3------3----3--3--3--|------------------|------------------|
--0------2----2--2--2--|------------------|------------------|
-----------------------|------------------|------------------|
-----------------------|------------------|------------------|
-----------------------|------------------|------------------|

------------------|------------------|------------------|------------------|
------------------|------------------|------------------|------------------|
------------------|------------------|------------------|------------------|
------------------|------------------|------------------|------------------|
------------------|------------------|------------------|------------------|
------------------|------------------|------------------|------------------|

------------------|------------------|------------------|------------------|
------------------|------------------|------------------|------------------|
------------------|------------------|------------------|------------------|
------------------|------------------|------------------|------------------|
------------------|------------------|------------------|------------------|
------------------|------------------|------------------|------------------|

----------------------------|---------------------|----------------------------|
----12--12--12--10----9---7-|--7------10----------|----12--12--12--10----9---7-|
----9---9---9---9-----9---7-|--7------7-----------|----9---9---9---9-----9---7-|
--------------------------7-|--7------7-----------|--------------------------7-|
----------------------------|---------------------|----------------------------|
----------------------------|---------------------|----------------------------|

---------------------|----------------------------|---------------------|
--7------10----------|----12--12--12--10----9---7-|--7------10----------|
--7------7-----------|----9---9---9---9-----9---7-|--7------7-----------|
--7------7-----------|--------------------------7-|--7------7-----------|
---------------------|----------------------------|---------------------|
---------------------|----------------------------|---------------------|

-----------------------------|-----------------------|
----12--12--12--12--10--9----|--7--------------------|
----9---9---9---9---9---9----|--7------9----9--7h-9--|
-----------------------------|---------7----7--------|
-----------------------------|-----------------------|
-----------------------------|-----------------------|

----------------------------|---------------------|
----12--12--12--10----9---7-|--7------10----------|
----9---9---9---9-----9---7-|--7------7-----------|
--------------------------7-|--7------7-----------|
----------------------------|---------------------|
----------------------------|---------------------|

-----------------------------|-----------------------|
----12--12--12--12--10--9----|--7--------------------|
----9---9---9---9---9---9----|--7------9----9--7h-9--|
-----------------------------|---------7----7-----7--|
-----------------------------|-----------------------|
-----------------------------|-----------------------|

----------------------------|--------------------|------------------------|
----12--12--12--10----9---7-|--7------5----------|--7--7----10------10----|
----9---9---9---9-----9---7-|--7------7----------|--4--4----7-------7-----|
--------------------------7-|--------------------|--4--4----7-------7-----|
----------------------------|--------------------|------------------------|
----------------------------|--------------------|------------------------|

-----------------------|--------------------------|-----------------------|
---------10------------|-----7--------------------|---------10---------9--|
-----11------11-----9--|--------9-----7--9-----9--|-----11------11--------|
--9--------------9-----|--7--------7--------9-----|--9--------------9-----|
-----------------------|--------------------------|-----------------------|
-----------------------|--------------------------|-----------------------|

---------------------------|-----------------------|--------------------------|
---------10--------9/-7----|---------10------------|-----7--------------------|
-----11---------9--9/-7----|-----11------11-----9--|--------9-----7--9-----9--|
--9----------9-------------|--9--------------9-----|--7--------7--------9-----|
---------------------------|-----------------------|--------------------------|
---------------------------|-----------------------|--------------------------|

------------------------|-----------6--5--------|----------------------|
---------10-------------|--8~-------------8h-6--|--8b-----8h6----------|
-----11------11------9--|-----------------------|-------------7~-------|
--9--------------12-----|-----------------------|----------------------|
------------------------|-----------------------|----------------------|
------------------------|-----------------------|----------------------|

------------------------|----------------------|
------------------------|----------------------|
----0-2-4--5r-----4-----|----------------------|
---------------------3--|--7--5----3--5~-------|
------------------------|----------------------|
------------------------|----------------------|

--------------------------------|--------------------------|
----12--10------10--------------|--13b-13--12--------------|
------------12------12--10--12--|--------------12----------|
--------------------------------|--------------------------|
--------------------------------|--------------------------|
--------------------------------|--------------------------|

--17b-------17b-19--19--17h15-|--17--15------15----------|
------------------------------|----------18--------------|
------------------------------|--------------------------|
------------------------------|--------------------------|
------------------------------|--------------------------|
------------------------------|--------------------------|

----12h13h15h13h12h13-12h13h12-------------------|
-------------------------------15h13h15h13h12h15-|
-------------------------------------------------|
-------------------------------------------------|
-------------------------------------------------|
-------------------------------------------------|

---------------------------------------|
--13h12----13h12h13h12-----------------|
--------14-------------14h12-14b-------|
---------------------------------------|
---------------------------------------|
---------------------------------------|

--------------------------------------------------|
--------------------------------------------------|
--------------------------------------12h14h12----|
--------------12h14h12----------12h14----------14h|
-----12h14h15----------15h14h15-------------------|
--15----------------------------------------------|

-----------------------------------12-15----|
--------------12h13h12----12h13h15----------|
--------12h14----------14-------------------|
--12h14-------------------------------------|
--------------------------------------------|
--------------------------------------------|

----17-17-17-15----15----------15---------|
----------------18----18h17h18----18h-20--|
------------------------------------------|
------------------------------------------|
------------------------------------------|
------------------------------------------|

----------------------------------------|----------------------------|
----18-18-18-17----17-------------------|----------------------------|
----------------19----19-17-16-17-19r---|--------19--19h-17--16--17--|
----------------------------------------|----------------------------|
----------------------------------------|----------------------------|
----------------------------------------|----------------------------|

------------------20b---19----|---------------------|------------------------|
--20h-18--17--18--------------|--------5------------|--------7-----7--6------|
------------------------------|-----4---------------|-----6--------6---------|
------------------------------|--2------------------|--4--------4------------|
------------------------------|---------------------|------------------------|
------------------------------|---------------------|------------------------|

---------------------|--------------------------|---------------------|
--------8------------|--------10-----10--9------|--------5------------|
-----7---------------|-----9---------9----------|-----4---------------|
--5------------------|--7---------7-------------|--2------------------|
---------------------|--------------------------|---------------------|
---------------------|--------------------------|---------------------|

------------------------|------------------------|------------------|
--------7-----7--6------|------------------------|------------------|
-----6--------6---------|--------6-----6----7----|------------------|
--4--------4------------|-----6--------6----7----|------------------|
------------------------|--4--------4-------5----|------------------|
------------------------|------------------------|------------------|

----------------------------|---------------------|----------------------------|
----12--12--12--10----9---7-|--7------10----------|----12--12--12--10----9---7-|
----9---9---9---9-----9---7-|--7------7-----------|----9---9---9---9-----9---7-|
--------------------------7-|--7------7-----------|--------------------------7-|
----------------------------|---------------------|----------------------------|
----------------------------|---------------------|----------------------------|

---------------------|----------------------------|---------------------|
--7------10----------|----12--12--12--10----9---7-|--7------10----------|
--7------7-----------|----9---9---9---9-----9---7-|--7------7-----------|
--7------7-----------|--------------------------7-|--7------7-----------|
---------------------|----------------------------|---------------------|
---------------------|----------------------------|---------------------|

-----------------------------|-----------------------|
----12--12--12--12--10--9----|--7--------------------|
----9---9---9---9---9---9----|--7------9----9--7h-9--|
-----------------------------|---------7----7--------|
-----------------------------|-----------------------|
-----------------------------|-----------------------|

----------------------------|---------------------|
----12--12--12--10----9---7-|--7------10----------|
----9---9---9---9-----9---7-|--7------7-----------|
--------------------------7-|--7------7-----------|
----------------------------|---------------------|
----------------------------|---------------------|

-----------------------------|-----------------------|
----12--12--12--12--10--9----|--7--------------------|
----9---9---9---9---9---9----|--7------9----9--7h-9--|
-----------------------------|---------7----7-----7--|
-----------------------------|-----------------------|
-----------------------------|-----------------------|

----------------------------|--------------------|------------------------|
----12--12--12--10----9---7-|--7------5----------|--7--7----10------10----|
----9---9---9---9-----9---7-|--7------7----------|--4--4----7-------9-----|
--------------------------7-|--------------------|--4--4----7-------7-----|
----------------------------|--------------------|------------------------|
----------------------------|--------------------|------------------------|

------------------|--------------------------|------------------||
------------------|-----7--10--7-------------|------------------||
------------------|------------------9--9----|------------------||
------------------|--9------------7-----9----|------------------||
------------------|---------------------7----|------------------||
------------------|---------------------0----|------------------||




Rhythm Guitar

E||----------------|---------------------|----------------|-------------------|
B||----------------|---------------------|----------------|-------------------|
G||--4--------2----|----------------2----|--4--------2----|--4----------------|
D||--4--------2----|--2--------5----2----|--4--------2----|--4----------------|
A||--2--------0----|--2--------5----0----|--2--------0----|--2----------------|
E||----------------|--0--------3---------|----------------|-------------------|

----------------|---------------------|----------------|-------------------|
----------------|---------------------|----------------|-------------------|
--4--------2----|----------------2----|--4--------2----|-------------------|
--4--------2----|--2--------5----2----|--4--------2----|--4----------------|
--2--------0----|--2--------5----0----|--2--------0----|--5----------------|
----------------|--0--------3---------|----------------|-------------------|

----------------|---------------------|----------------|-------------------|
----------------|---------------------|----------------|-------------------|
--4--------2----|----------------2----|--4--------2----|--4----------------|
--4--------2----|--2--------5----2----|--4--------2----|--4----------------|
--2--------0----|--2--------5----0----|--2--------0----|--2----------------|
----------------|--0--------3---------|----------------|-------------------|

----------------|---------------------|----------------|
----------------|---------------------|----------------|
--4--------2----|----------------2----|--4--------2----|
--4--------2----|--2--------5----2----|--4--------2----|
--2-------------|--2--------5----0----|--2--------0----|
-----------5----|--0--------3---------|----------------|

------------------------|------------------------|------------------------|
------------------------|------------------------|------------------------|
------------------------|------------------------|------------------------|
-----2--------0h-2------|-----2--------2---------|-----2--------0h-2------|
--------2---------------|--------2--------0------|--------2---------------|
--0--------0------------|--0--------0------------|--0--------0------------|

-----------------------|------------------------|------------------------|
-----------------------|------------------------|------------------------|
-----------------------|------------------------|------------------------|
--0-----------2-----2--|-----2--------0h-2------|-----2--------2---------|
---------0-------------|--------2---------------|--------2--------0------|
-----------------3-----|--0--------0------------|--0--------0------------|

------------------------|-----------------------|------------------------|
------------------------|-----------------------|------------------------|
------------------------|---------7----7--6--7--|------------------------|
-----2--------0h-2------|--5------7-------------|-----2--------0h-2------|
--------2-----0h-2------|--5------5----5--4--5--|--------2---------------|
--0--------0------------|--3--------------------|--0--------0------------|

------------------------|------------------------|-----------------------|
------------------------|------------------------|-----------------------|
------------------------|------------------------|-----------------------|
-----2--------2---------|-----2--------0h-2------|--0-----------2-----2--|
--------2--------0------|--------2---------------|---------0-------------|
--0--------0------------|--0--------0------------|-----------------3-----|

------------------------|------------------------|------------------------|
------------------------|------------------------|------------------------|
------------------------|------------------------|------------------------|
-----2--------0h-2------|-----2--------2---------|-----2--------0h-2------|
--------2---------------|--------2--------0------|--------2---------------|
--0--------0------------|--0--------0------------|--0--------0------------|

-----------------------|------------------------|------------------------|
-----------------------|------------------------|------------------------|
-----------------------|------------------------|------------------------|
--0-----------2-----2--|-----2--------0h-2------|-----2--------2---------|
---------0-------------|--------2---------------|--------2--------0------|
-----------------3-----|--0--------0------------|--0--------0------------|

------------------------|-----------------------|------------------------|
------------------------|-----------------------|------------------------|
------------------------|-----------------------|------------------------|
-----2--------0h-2------|--0-----------2-----2--|-----2--------0h-2------|
--------2---------------|---------0-------------|--------2---------------|
--0--------0------------|-----------------3-----|--0--------0------------|

------------------------|------------------------|---------------------|
------------------------|------------------------|---------------------|
------------------------|------------------------|---------7--7--------|
-----2--------2---------|-----2--------0h-2------|--5------7--7--------|
--------2--------0------|--------2---------------|--5------5--5--------|
--0--------0------------|--0--------0------------|--3------------------|

------------------|------------------|------------------|------------------|
------------------|------------------|------------------|------------------|
------------------|------------------|------------------|------------------|
------------------|------------------|------------------|------------------|
------------------|------------------|------------------|------------------|
------------------|------------------|------------------|------------------|

------------------|------------------|------------------|------------------|
------------------|------------------|------------------|------------------|
------------------|------------------|------------------|------------------|
------------------|------------------|------------------|------------------|
------------------|------------------|------------------|------------------|
------------------|------------------|------------------|------------------|

------------------|------------------|-----------------------|
------------------|------------------|-----------------------|
------------------|------------------|-----------------------|
------------------|------------------|-----9--9----7----6----|
------------------|------------------|-----7--7----7----7----|
------------------|------------------|--0--------------------|

------------------------|----------------------|------------------------|
------------------------|----------------------|------------------------|
-----0h-2--2------------|----------------------|-----0h-2--2------------|
--0--0-----2------------|----9--9----7----6----|--0--0-----2------------|
-----------0------------|----7--7----7----7----|-----------0------------|
------------------3--0--|----------------------|------------------3--0--|

----------------------|-----------------------|----------------------|
----------------------|-----------------------|----------------------|
----------------------|-----0h-2--------------|--4--4----7-----------|
----9--9----7----6----|--0-----0--0------2----|--4--4----7------7----|
----7--7----7----7----|-----------0------0----|--2--2----5------7----|
----------------------|-----------------------|-----------------5----|

------------------|------------------------|------------------------|
------------------|------------------------|------------------------|
------------------|------------------------|------------------------|
------------------|-----2--------0h-2------|-----2--------2---------|
------------------|--------2---------------|--------2--------0------|
------------------|--0--------0------------|--0--------0------------|

------------------------|-----------------------|------------------------|
------------------------|-----------------------|------------------------|
------------------------|-----------------------|------------------------|
-----2--------0h-2------|--0-----------2-----2--|-----2--------0h-2------|
--------2---------------|---------0-------------|--------2---------------|
--0--------0------------|-----------------3-----|--0--------0------------|

------------------------|------------------------|-----------------------|
------------------------|------------------------|-----------------------|
------------------------|------------------------|-----------------------|
-----2--------2---------|-----2--------0h-2------|--0-----------2-----2--|
--------2--------0------|--------2---------------|---------0-------------|
--0--------0------------|--0--------0------------|-----------------3-----|

------------------------|------------------------|------------------------|
------------------------|------------------------|------------------------|
------------------------|------------------------|------------------------|
-----2--------0h-2------|-----2--------2---------|-----2--------0h-2------|
--------2---------------|--------2--------0------|--------2---------------|
--0--------0------------|--0--------0------------|--0--------0------------|

-----------------------|------------------------|------------------------|
-----------------------|------------------------|------------------------|
-----------------------|------------------------|------------------------|
--0-----------2-----2--|-----2--------0h-2------|-----2--------2---------|
---------0-------------|--------2---------------|--------2--------0------|
-----------------3-----|--0--------0------------|--0--------0------------|

------------------------|---------------------|------------------|
------------------------|---------------------|------------------|
------------------------|---------7--7--------|------------------|
-----2--------0h-2------|--5------7--7--------|------------------|
--------2---------------|--5------5--5--------|------------------|
--0--------0------------|--3------------------|------------------|

------------------|------------------|------------------|------------------|
------------------|------------------|------------------|------------------|
------------------|------------------|------------------|------------------|
------------------|------------------|------------------|------------------|
------------------|------------------|------------------|------------------|
------------------|------------------|------------------|------------------|

------------------|------------------|------------------|------------------|
------------------|------------------|------------------|------------------|
------------------|------------------|------------------|------------------|
------------------|------------------|------------------|------------------|
------------------|------------------|------------------|------------------|
------------------|------------------|------------------|------------------|

------------------|-----------------------|------------------------|
------------------|-----------------------|------------------------|
------------------|-----------------------|-----0h-2--2------------|
------------------|-----9--9----7----6----|--0--0-----2------------|
------------------|-----7--7----7----7----|-----------0------------|
------------------|--0--------------------|------------------3--0--|

----------------------|------------------------|----------------------|
----------------------|------------------------|----------------------|
----------------------|-----0h-2--2------------|----------------------|
----9--9----7----6----|--0--0-----2------------|----9--9----7----6----|
----7--7----7----7----|-----------0------------|----7--7----7----7----|
----------------------|------------------3--0--|----------------------|

------------------------|----------------------|------------------------|
------------------------|----------------------|------------------------|
-----0h-2--2------------|----------------------|-----0h-2--2------------|
--0--0-----2------------|----9--9----7----6----|--0--0-----2------------|
-----------0------------|----7--7----7----7----|-----------0------------|
------------------3--0--|----------------------|------------------3--0--|

----------------------|------------------------|----------------------|
----------------------|------------------------|----------------------|
----------------------|-----0h-2--2------------|----------------------|
----9--9----7----6----|--0--0-----2------------|----9--9----7----6----|
----7--7----7----7----|-----------0------------|----7--7----7----7----|
----------------------|------------------3--0--|----------------------|

------------------------|----------------------|-----------------------|
------------------------|----------------------|-----------------------|
-----0h-2--2------------|----------------------|-----0h-2--2------2----|
--0--0-----2------------|----9--9----7----6----|--0-----0--2------2----|
-----------0------------|----7--7----7----7----|-----------0------0----|
------------------3--0--|----------------------|-----------------------|

----------------------|---------------|------------------|------------------|
----------3-----------|---------------|------------------|------------------|
--4--4----2------2----|--4------------|------------------|------------------|
--4--4----0------2----|--4------------|------------------|------------------|
--2--2-----------0----|--2------------|------------------|------------------|
----------------------|---------------|------------------|------------------|

------------------|----------------|---------------------|----------------|
------------------|----------------|---------------------|----------------|
------------------|--4--------2----|----------------2----|--4--------2----|
------------------|--4--------2----|--2--------5----2----|--4--------0----|
------------------|--2--------0----|--2--------5----0----|--2-------------|
------------------|----------------|--0--------3---------|----------------|

-------------------------|-------------------------|-------------------------|
-------------------------|-------------------------|-------------------------|
-------------------------|-------------------------|-------------------------|
--5----3--5--3h-5--------|--5----3--5--3h-5--------|--5----3--5--3h-5--------|
--5-------5--3--5--------|--5-------5--3--5--------|--5-------5--3--5--------|
--3----------------3--3--|--3----------------3--3--|--3----------------3--3--|

----------------------|-------------------------|-------------------------|
----------------------|-------------------------|-------------------------|
----------------------|-------------------------|-------------------------|
--3------3--2---------|--5----3--5--3h-5--------|--5----3--5--3h-5--------|
--3------3--3----3----|--5-------5--3--5--------|--5-------5--3--5--------|
--1------1------------|--3----------------3--3--|--3----------------3--3--|

-------------------------|----------------------|-------------------------|
-------------------------|----------------------|-------------------------|
-------------------------|----------------------|-------------------------|
--5----3--5--3h-5--------|--3------3--2---------|--5----3--5--3h-5--------|
--5-------5--3--5--------|--3------3--3----3----|--5-------5--3--5--------|
--3----------------3--3--|--1------1------------|--3----------------3--3--|

-------------------------|-------------------------|----------------------|
-------------------------|-------------------------|----------------------|
-------------------------|-------------------------|----------------------|
--5----3--5--3h-5--------|--5----3--5--3h-5--------|--3------3--2---------|
--5-------5--3--5--------|--5-------5--3--5--------|--3------3--3----3----|
--3----------------3--3--|--3----------------3--3--|--1------1------------|

-------------------------|-------------------------|-------------------------|
-------------------------|-------------------------|-------------------------|
-------------------------|-------------------------|-------------------------|
--5----3--5--3h-5--------|--5----3--5--3h-5--------|--5----3--5--3h-5--------|
--5-------5--3--5--------|--5-------5--3--5--------|--5-------5--3--5--------|
--3----------------3--3--|--3----------------3--3--|--3----------------3--3--|

----------------------|-------------------|-------------------|
----------------------|-------------------|-------------------|
----------------------|-------------------|-------------------|
--3------3--2---------|--2----------------|--4----------------|
--3------3--3----3----|--2----------------|--4----------------|
--1------1------------|--0----------------|--2----------------|

-------------------|-------------------|-------|-------------------|
-------------------|-------------------|-------|-------------------|
-------------------|-------------------|-------|-------------------|
--5----------------|--7----------------|--2----|--4----------------|
--5----------------|--7----------------|--2----|--4----------------|
--3----------------|--5----------------|--0----|--2----------------|

--------------------|------------------|-----------------------|
--------------------|------------------|-----------------------|
--6------------7----|------------------|-----------------------|
--6------------7----|------------------|-----9--9----7----6----|
--4------------5----|------------------|-----7--7----7----7----|
--------------------|------------------|--0--------------------|

------------------------|----------------------|------------------------|
------------------------|----------------------|------------------------|
-----0h-2--2------------|----------------------|-----0h-2--2------------|
--0--0-----2------------|----9--9----7----6----|--0--0-----2------------|
-----------0------------|----7--7----7----7----|-----------0------------|
------------------3--0--|----------------------|------------------3--0--|

----------------------|------------------------|----------------------|
----------------------|------------------------|----------------------|
----------------------|-----0h-2--2------------|----------------------|
----9--9----7----6----|--0--0-----2------------|----9--9----7----6----|
----7--7----7----7----|-----------0------------|----7--7----7----7----|
----------------------|------------------3--0--|----------------------|

------------------------|----------------------|------------------------|
------------------------|----------------------|------------------------|
-----0h-2--2------------|----------------------|-----0h-2--2------------|
--0--0-----2------------|----9--9----7----6----|--0--0-----2------------|
-----------0------------|----7--7----7----7----|-----------0------------|
------------------3--0--|----------------------|------------------3--0--|

----------------------|------------------------|----------------------|
----------------------|------------------------|----------------------|
----------------------|-----0h-2--2------------|----------------------|
----9--9----7----6----|--0--0-----2------------|----9--9----7----6----|
----7--7----7----7----|-----------0------------|----7--7----7----7----|
----------------------|------------------3--0--|----------------------|

-----------------------|----------------------|-----------------------|
-----------------------|----------------------|-----------------------|
-----0h-2--2------2----|----------------------|-----0h-2--2------2----|
--0-----0--2------2----|----9--9----7----6----|--0-----0--2------2----|
-----------0------0----|----7--7----7----7----|-----------0------0----|
-----------------------|----------------------|-----------------------|

---------------------|------------------||
---------------------|------------------||
--4--------2---------|------------------||
--4--------2----9----|------------------||
--2--------0----7----|------------------||
----------------0----|------------------||





Bridge Lead Guitar

E||--------------|------------------|--------------|------------------|
B||--------------|------------------|--------------|------------------|
G||--------------|------------------|--------------|------------------|
D||--------------|------------------|--------------|------------------|
A||--------------|------------------|--------------|------------------|
E||--------------|------------------|--------------|------------------|

--------------|------------------|--------------|------------------|
--------------|------------------|--------------|------------------|
--------------|------------------|--------------|------------------|
--------------|------------------|--------------|------------------|
--------------|------------------|--------------|------------------|
--------------|------------------|--------------|------------------|

--------------|------------------|--------------|------------------|
--------------|------------------|--------------|------------------|
--------------|------------------|--------------|------------------|
--------------|------------------|--------------|------------------|
--------------|------------------|--------------|------------------|
--------------|------------------|--------------|------------------|

--------------|------------------|--------------|------------------|
--------------|------------------|--------------|------------------|
--------------|------------------|--------------|------------------|
--------------|------------------|--------------|------------------|
--------------|------------------|--------------|------------------|
--------------|------------------|--------------|------------------|

------------------|------------------|------------------|------------------|
------------------|------------------|------------------|------------------|
------------------|------------------|------------------|------------------|
------------------|------------------|------------------|------------------|
------------------|------------------|------------------|------------------|
------------------|------------------|------------------|------------------|

------------------|------------------|------------------|------------------|
------------------|------------------|------------------|------------------|
------------------|------------------|------------------|------------------|
------------------|------------------|------------------|------------------|
------------------|------------------|------------------|------------------|
------------------|------------------|------------------|------------------|

------------------|------------------|------------------|------------------|
------------------|------------------|------------------|------------------|
------------------|------------------|------------------|------------------|
------------------|------------------|------------------|------------------|
------------------|------------------|------------------|------------------|
------------------|------------------|------------------|------------------|

------------------|------------------|------------------|------------------|
------------------|------------------|------------------|------------------|
------------------|------------------|------------------|------------------|
------------------|------------------|------------------|------------------|
------------------|------------------|------------------|------------------|
------------------|------------------|------------------|------------------|

------------------|------------------|------------------|------------------|
------------------|------------------|------------------|------------------|
------------------|------------------|------------------|------------------|
------------------|------------------|------------------|------------------|
------------------|------------------|------------------|------------------|
------------------|------------------|------------------|------------------|

------------------|------------------|------------------|---------------------|
------------------|------------------|------------------|--------5------------|
------------------|------------------|------------------|-----4---------------|
------------------|------------------|------------------|--4------------------|
------------------|------------------|------------------|---------------------|
------------------|------------------|------------------|---------------------|

---------------------|--------7------------|--------5------------|
--------5------------|---------------------|-----5---------------|
-----2---------------|-----7---------------|---------------------|
--2------------------|--5------------------|--7------------------|
---------------------|---------------------|---------------------|
---------------------|---------------------|---------------------|

---------------------|---------------------|--------7------------|
--------5------------|--------5------------|---------------------|
-----4---------------|-----2---------------|-----7---------------|
--4------------------|--2------------------|--5------------------|
---------------------|---------------------|---------------------|
---------------------|---------------------|---------------------|

--------5-------------|----------------------|------------------|
-------------------8--|------8----8------10--|------------------|
-----5-------------5--|------5----5------7---|------------------|
--3----------------5--|------5----5------7---|------------------|
----------------------|----------------------|------------------|
----------------------|----------------------|------------------|

------------------|------------------|------------------|------------------|
------------------|------------------|------------------|------------------|
------------------|------------------|------------------|------------------|
------------------|------------------|------------------|------------------|
------------------|------------------|------------------|------------------|
------------------|------------------|------------------|------------------|

------------------|------------------|------------------|------------------|
------------------|------------------|------------------|------------------|
------------------|------------------|------------------|------------------|
------------------|------------------|------------------|------------------|
------------------|------------------|------------------|------------------|
------------------|------------------|------------------|------------------|

------------------|------------------|------------------|------------------|
------------------|------------------|------------------|------------------|
------------------|------------------|------------------|------------------|
------------------|------------------|------------------|------------------|
------------------|------------------|------------------|------------------|
------------------|------------------|------------------|------------------|

------------------|------------------|------------------|------------------|
------------------|------------------|------------------|------------------|
------------------|------------------|------------------|------------------|
------------------|------------------|------------------|------------------|
------------------|------------------|------------------|------------------|
------------------|------------------|------------------|------------------|

------------------|------------------|------------------|------------------|
------------------|------------------|------------------|------------------|
------------------|------------------|------------------|------------------|
------------------|------------------|------------------|------------------|
------------------|------------------|------------------|------------------|
------------------|------------------|------------------|------------------|

------------------|------------------|------------------|------------------|
------------------|------------------|------------------|------------------|
------------------|------------------|------------------|------------------|
------------------|------------------|------------------|------------------|
------------------|------------------|------------------|------------------|
------------------|------------------|------------------|------------------|

---------------------|---------------------|--------7------------|
--------5------------|--------5------------|---------------------|
-----4---------------|-----2---------------|-----7---------------|
--4------------------|--2------------------|--5------------------|
---------------------|---------------------|---------------------|
---------------------|---------------------|---------------------|

--------5------------|---------------------|---------------------|
-----5---------------|--------5------------|--------5------------|
---------------------|-----4---------------|-----2---------------|
--7------------------|--4------------------|--2------------------|
---------------------|---------------------|---------------------|
---------------------|---------------------|---------------------|

--------7------------|--------5-------------|----------------------|
---------------------|-------------------8--|------8----8------10--|
-----7---------------|-----5-------------5--|------5----5------7---|
--5------------------|--3----------------5--|------5----5------7---|
---------------------|----------------------|----------------------|
---------------------|----------------------|----------------------|

------------------|------------------|------------------|------------------|
------------------|------------------|------------------|------------------|
------------------|------------------|------------------|------------------|
------------------|------------------|------------------|------------------|
------------------|------------------|------------------|------------------|
------------------|------------------|------------------|------------------|

------------------|------------------|------------------|------------------|
------------------|------------------|------------------|------------------|
------------------|------------------|------------------|------------------|
------------------|------------------|------------------|------------------|
------------------|------------------|------------------|------------------|
------------------|------------------|------------------|------------------|

------------------|------------------|------------------|------------------|
------------------|------------------|------------------|------------------|
------------------|------------------|------------------|------------------|
------------------|------------------|------------------|------------------|
------------------|------------------|------------------|------------------|
------------------|------------------|------------------|------------------|

------------------|------------------|------------------|------------------|
------------------|------------------|------------------|------------------|
------------------|------------------|------------------|------------------|
------------------|------------------|------------------|------------------|
------------------|------------------|------------------|------------------|
------------------|------------------|------------------|------------------|

--------------|------------------|--------------|------------------|
--------------|------------------|--------------|------------------|
--------------|------------------|--------------|------------------|
--------------|------------------|--------------|------------------|
--------------|------------------|--------------|------------------|
--------------|------------------|--------------|------------------|

--------------|------------------|--------------|------------------|
--------------|------------------|--------------|------------------|
--------------|------------------|--------------|------------------|
--------------|------------------|--------------|------------------|
--------------|------------------|--------------|------------------|
--------------|------------------|--------------|------------------|

------------------|------------------|------------------|------------------|
------------------|------------------|------------------|------------------|
------------------|------------------|------------------|------------------|
------------------|------------------|------------------|------------------|
------------------|------------------|------------------|------------------|
------------------|------------------|------------------|------------------|

------------------|------------------|------------------|------------------|
------------------|------------------|------------------|------------------|
------------------|------------------|------------------|------------------|
------------------|------------------|------------------|------------------|
------------------|------------------|------------------|------------------|
------------------|------------------|------------------|------------------|

------------------|------------------|------------------|------------------|
------------------|------------------|------------------|------------------|
------------------|------------------|------------------|------------------|
------------------|------------------|------------------|------------------|
------------------|------------------|------------------|------------------|
------------------|------------------|------------------|------------------|

------------------|------------------|------------------|------------------|
------------------|------------------|------------------|------------------|
------------------|------------------|------------------|------------------|
------------------|------------------|------------------|------------------|
------------------|------------------|------------------|------------------|
------------------|------------------|------------------|------------------|

------------------|------------------|------------------|------------------|
------------------|------------------|------------------|------------------|
------------------|------------------|------------------|------------------|
------------------|------------------|------------------|------------------|
------------------|------------------|------------------|------------------|
------------------|------------------|------------------|------------------|

------------------|------------------|------------------|------------------|
------------------|------------------|------------------|------------------|
------------------|------------------|------------------|------------------|
------------------|------------------|------------------|------------------|
------------------|------------------|------------------|------------------|
------------------|------------------|------------------|------------------|

------------------|------------------|------------------|------------------|
------------------|------------------|------------------|------------------|
------------------|------------------|------------------|------------------|
------------------|------------------|------------------|------------------|
------------------|------------------|------------------|------------------|
------------------|------------------|------------------|------------------|

------------------|------------------|------------------|------------------|
------------------|------------------|------------------|------------------|
------------------|------------------|------------------|------------------|
------------------|------------------|------------------|------------------|
------------------|------------------|------------------|------------------|
------------------|------------------|------------------|------------------|

------------------|------------------|------------------|------------------|
------------------|------------------|------------------|------------------|
------------------|------------------|------------------|------------------|
------------------|------------------|------------------|------------------|
------------------|------------------|------------------|------------------|
------------------|------------------|------------------|------------------|

------------------|------------------|------------------|------------------|
------------------|------------------|------------------|------------------|
------------------|------------------|------------------|------------------|
------------------|------------------|------------------|------------------|
------------------|------------------|------------------|------------------|
------------------|------------------|------------------|------------------|

------------------||
------------------||
------------------||
------------------||
------------------||
------------------||




Bridge Rhythm Guitar

E||--------------|------------------|--------------|------------------|
B||--------------|------------------|--------------|------------------|
G||--------------|------------------|--------------|------------------|
D||--------------|------------------|--------------|------------------|
A||--------------|------------------|--------------|------------------|
E||--------------|------------------|--------------|------------------|

--------------|------------------|--------------|------------------|
--------------|------------------|--------------|------------------|
--------------|------------------|--------------|------------------|
--------------|------------------|--------------|------------------|
--------------|------------------|--------------|------------------|
--------------|------------------|--------------|------------------|

--------------|------------------|--------------|------------------|
--------------|------------------|--------------|------------------|
--------------|------------------|--------------|------------------|
--------------|------------------|--------------|------------------|
--------------|------------------|--------------|------------------|
--------------|------------------|--------------|------------------|

--------------|------------------|--------------|------------------|
--------------|------------------|--------------|------------------|
--------------|------------------|--------------|------------------|
--------------|------------------|--------------|------------------|
--------------|------------------|--------------|------------------|
--------------|------------------|--------------|------------------|

------------------|------------------|------------------|------------------|
------------------|------------------|------------------|------------------|
------------------|------------------|------------------|------------------|
------------------|------------------|------------------|------------------|
------------------|------------------|------------------|------------------|
------------------|------------------|------------------|------------------|

------------------|------------------|------------------|------------------|
------------------|------------------|------------------|------------------|
------------------|------------------|------------------|------------------|
------------------|------------------|------------------|------------------|
------------------|------------------|------------------|------------------|
------------------|------------------|------------------|------------------|

------------------|------------------|------------------|------------------|
------------------|------------------|------------------|------------------|
------------------|------------------|------------------|------------------|
------------------|------------------|------------------|------------------|
------------------|------------------|------------------|------------------|
------------------|------------------|------------------|------------------|

------------------|------------------|------------------|------------------|
------------------|------------------|------------------|------------------|
------------------|------------------|------------------|------------------|
------------------|------------------|------------------|------------------|
------------------|------------------|------------------|------------------|
------------------|------------------|------------------|------------------|

------------------|------------------|------------------|------------------|
------------------|------------------|------------------|------------------|
------------------|------------------|------------------|------------------|
------------------|------------------|------------------|------------------|
------------------|------------------|------------------|------------------|
------------------|------------------|------------------|------------------|

------------------|------------------|------------------|
------------------|------------------|------------------|
------------------|------------------|------------------|
------------------|------------------|------------------|
------------------|------------------|------------------|
------------------|------------------|------------------|

-----------------------|-----------------------|-----------------------|
-----------------------|-----------------------|-----------------------|
--4---------4----------|--2---------2----------|-----------------------|
--4------------4-------|--2------------2-------|--5---------5----------|
--2------2--------2----|--0------0--------0----|--5------------5-------|
-----------------------|-----------------------|--3------3--------3----|

-----------------------|-----------------------|-----------------------|
-----------------------|-----------------------|-----------------------|
--2---------2----------|--4---------4----------|--2---------2----------|
--2------------2-------|--4------------4-------|--2------------2-------|
--0------0--------0----|--2------2--------2----|--0------0--------0----|
-----------------------|-----------------------|-----------------------|

-----------------------|--------------------|-------------------|
-----------------------|--------------------|----------------3--|
-----------------------|-----------------5--|----------------2--|
--5---------5----------|--3--------------5--|----------------0--|
--5------------5-------|--3--------------3--|-------------------|
--3------3--------3----|--1-----------------|-------------------|

------------------|------------------|------------------|------------------|
------------------|------------------|------------------|------------------|
------------------|------------------|------------------|------------------|
------------------|------------------|------------------|------------------|
------------------|------------------|------------------|------------------|
------------------|------------------|------------------|------------------|

------------------|------------------|------------------|------------------|
------------------|------------------|------------------|------------------|
------------------|------------------|------------------|------------------|
------------------|------------------|------------------|------------------|
------------------|------------------|------------------|------------------|
------------------|------------------|------------------|------------------|

------------------|------------------|------------------|------------------|
------------------|------------------|------------------|------------------|
------------------|------------------|------------------|------------------|
------------------|------------------|------------------|------------------|
------------------|------------------|------------------|------------------|
------------------|------------------|------------------|------------------|

------------------|------------------|------------------|------------------|
------------------|------------------|------------------|------------------|
------------------|------------------|------------------|------------------|
------------------|------------------|------------------|------------------|
------------------|------------------|------------------|------------------|
------------------|------------------|------------------|------------------|

------------------|------------------|------------------|------------------|
------------------|------------------|------------------|------------------|
------------------|------------------|------------------|------------------|
------------------|------------------|------------------|------------------|
------------------|------------------|------------------|------------------|
------------------|------------------|------------------|------------------|

------------------|------------------|------------------|------------------|
------------------|------------------|------------------|------------------|
------------------|------------------|------------------|------------------|
------------------|------------------|------------------|------------------|
------------------|------------------|------------------|------------------|
------------------|------------------|------------------|------------------|

------------------|-----------------------|-----------------------|
------------------|-----------------------|-----------------------|
------------------|--4---------4----------|--2---------2----------|
------------------|--4------------4-------|--2------------2-------|
------------------|--2------2--------2----|--0------0--------0----|
------------------|-----------------------|-----------------------|

-----------------------|-----------------------|-----------------------|
-----------------------|-----------------------|-----------------------|
-----------------------|--2---------2----------|--4---------4----------|
--5---------5----------|--2------------2-------|--4------------4-------|
--5------------5-------|--0------0--------0----|--2------2--------2----|
--3------3--------3----|-----------------------|-----------------------|

-----------------------|-----------------------|--------------------|
-----------------------|-----------------------|--------------------|
--2---------2----------|-----------------------|-----------------5--|
--2------------2-------|--5---------5----------|--3--------------5--|
--0------0--------0----|--5------------5-------|--3--------------3--|
-----------------------|--3------3--------3----|--1-----------------|

-------------------|------------------|------------------|------------------|
----------------3--|------------------|------------------|------------------|
----------------2--|------------------|------------------|------------------|
----------------0--|------------------|------------------|------------------|
-------------------|------------------|------------------|------------------|
-------------------|------------------|------------------|------------------|

------------------|------------------|------------------|------------------|
------------------|------------------|------------------|------------------|
------------------|------------------|------------------|------------------|
------------------|------------------|------------------|------------------|
------------------|------------------|------------------|------------------|
------------------|------------------|------------------|------------------|

------------------|------------------|------------------|------------------|
------------------|------------------|------------------|------------------|
------------------|------------------|------------------|------------------|
------------------|------------------|------------------|------------------|
------------------|------------------|------------------|------------------|
------------------|------------------|------------------|------------------|

------------------|------------------|------------------|------------------|
------------------|------------------|------------------|------------------|
------------------|------------------|------------------|------------------|
------------------|------------------|------------------|------------------|
------------------|------------------|------------------|------------------|
------------------|------------------|------------------|------------------|

------------------|--------------|------------------|--------------|
------------------|--------------|------------------|--------------|
------------------|--------------|------------------|--------------|
------------------|--------------|------------------|--------------|
------------------|--------------|------------------|--------------|
------------------|--------------|------------------|--------------|

------------------|--------------|------------------|--------------|
------------------|--------------|------------------|--------------|
------------------|--------------|------------------|--------------|
------------------|--------------|------------------|--------------|
------------------|--------------|------------------|--------------|
------------------|--------------|------------------|--------------|

------------------|------------------|------------------|------------------|
------------------|------------------|------------------|------------------|
------------------|------------------|------------------|------------------|
------------------|------------------|------------------|------------------|
------------------|------------------|------------------|------------------|
------------------|------------------|------------------|------------------|

------------------|------------------|------------------|------------------|
------------------|------------------|------------------|------------------|
------------------|------------------|------------------|------------------|
------------------|------------------|------------------|------------------|
------------------|------------------|------------------|------------------|
------------------|------------------|------------------|------------------|

------------------|------------------|------------------|------------------|
------------------|------------------|------------------|------------------|
------------------|------------------|------------------|------------------|
------------------|------------------|------------------|------------------|
------------------|------------------|------------------|------------------|
------------------|------------------|------------------|------------------|

------------------|------------------|------------------|------------------|
------------------|------------------|------------------|------------------|
------------------|------------------|------------------|------------------|
------------------|------------------|------------------|------------------|
------------------|------------------|------------------|------------------|
------------------|------------------|------------------|------------------|

------------------|------------------|------------------|------------------|
------------------|------------------|------------------|------------------|
------------------|------------------|------------------|------------------|
------------------|------------------|------------------|------------------|
------------------|------------------|------------------|------------------|
------------------|------------------|------------------|------------------|

------------------|------------------|------------------|------------------|
------------------|------------------|------------------|------------------|
------------------|------------------|------------------|------------------|
------------------|------------------|------------------|------------------|
------------------|------------------|------------------|------------------|
------------------|------------------|------------------|------------------|

------------------|------------------|------------------|------------------|
------------------|------------------|------------------|------------------|
------------------|------------------|------------------|------------------|
------------------|------------------|------------------|------------------|
------------------|------------------|------------------|------------------|
------------------|------------------|------------------|------------------|

------------------|------------------|------------------|------------------|
------------------|------------------|------------------|------------------|
------------------|------------------|------------------|------------------|
------------------|------------------|------------------|------------------|
------------------|------------------|------------------|------------------|
------------------|------------------|------------------|------------------|

------------------|------------------|------------------|------------------|
------------------|------------------|------------------|------------------|
------------------|------------------|------------------|------------------|
------------------|------------------|------------------|------------------|
------------------|------------------|------------------|------------------|
------------------|------------------|------------------|------------------|

------------------|------------------|------------------|------------------|
------------------|------------------|------------------|------------------|
------------------|------------------|------------------|------------------|
------------------|------------------|------------------|------------------|
------------------|------------------|------------------|------------------|
------------------|------------------|------------------|------------------|

------------------|------------------||
------------------|------------------||
------------------|------------------||
------------------|------------------||
------------------|------------------||
------------------|------------------||
comments
We did not receive enough feedback on this tab! Please rate:
print report bad tab
1 2 3 4 5
I want to post or [tab]
guest
You may want to rate the tab now too:
select rating
Please do not post tabs as comments. Select "correction" instead!