Oops, an error
Loading. Please wait.

Speak Tab

ver2
ver2

Whole song

Interactive

More versions @911Tabs.com
186 views 6 this week
no commentswrite comment
1 2 3 4 5
please rate
Autoscroll
+/-
esc
set tempo
stop
Contributor
Difficulty
intermediate
Hey! There's an official Ultimate Guitar app which is ideal
for learning songs when you're away from computer. Get the app
WARNING: You are trying to view
                                    content from Ultimate-Guitar.com
                                    in an unauthorized application,
                                    which is prohibited.

                                    Please use an official Ultimate
                                    Guitar Tabs application for iPhone,
                                    iPad or Android to access legitimate
                                    chords, guitar, bass, and drum tabs
                                    from Ultimate-Guitar.com database.

                                    Type "ultimate guitar tabs" in Apple
                                    App Store's or Android Market's
                                    search to find the application.
Chris De Garmo's intro riff:
e|-------------------------------------------------------------------------|
b|-------------------------------------------------------------------------|
g|-2---------9---------5~~~---------------2---------9---------5~~~----7----|
d|-2---------9---------5~~~-----5---------2---------9---------5~~~----7----|
a|-0---------7---------3~~~-----5---------0---------7---------3~~~----5----|
e|------------------------------3------------------------------------------|

e|-----------------------------------------------|
b|-----------------------------------------------|
g|-2---------9---------5~~~----------------------|
d|-2---------9---------5~~~-----5---------2------|
a|-0---------7---------3~~~-----5---------2------|
e|------------------------------3---------0------|

Main riff:
e|------------------------------------------------|
b|------------------------------------------------|
g|------------------------------------------------|   play 5 times.
d|-------2---------2--------------2--------0------|
a|----2---------3--------------2--------2---------|
e|-0---------0---------0-0-0--------0---------0-0-|
  p.m.--------------------------------------------|

e|-----------------------|-----------|-----------|
b|-----------------------|-----------|-----------|
g|-----------------------|-----2-----|-----4-----|
d|-------2---------2-----|-----2-----|-----2-----|
a|----2---------3--------|-----3-----|-----0-----|
e|-0---------0-----------|-----------|-----------|
          religion   is   to  blame  ... a gun

Chorus:
e|----------------------------------------------------------------------|
b|--0------0------0------0---0---0------0------0------0------0---0---0--|
g|--0------0------0------0---0---0------0------0------0------0---0---0--|
d|--2------4------2------4---5---4------2------4------2------4---5---4--|
a|--3------5------3------5---5---5------3------5------3------5---5---5--|
e|----------------------------------------------------------------------|
   speak to me!                      The pain you feel!

e|-------------------------------------------------------------------|
b|-------------------------------------------------------------------|
g|---4------2------5--------------------------------4----2----5---4--|
d|---2------2------5--------------------------------2----2----5---4--|
a|---2------0------3--------------------------------2----0----3---2--|
e|-0------------------------------------------0----------------------|
 p.m.speak  the  word    .. revolution..    the   word   is  all  of (us)

Main riff:
e|------------------------------------------------|
b|------------------------------------------------|
g|------------------------------------------------|   play 3 times.
d|-------2---------2--------------2--------0------|
a|----2---------3--------------2--------2---------|
e|-0---------0---------0-0-0--------0---------0-0-|
  p.m.--------------------------------------------|

e|-----------------------|-----------|-----------|
b|-----------------------|-----------|-----------|
g|-----------------------|-----2-----|-----4-----|
d|-------2---------2-----|-----2-----|-----2-----|
a|----2---------3--------|-----3-----|-----0-----|
e|-0---------0-----------|-----------|-----------|
            to make you understand   ..in mind

Chorus:
e|----------------------------------------------------------------------|
b|--0------0------0------0---0---0------0------0------0------0---0---0--|
g|--0------0------0------0---0---0------0------0------0------0---0---0--|
d|--2------4------2------4---5---4------2------4------2------4---5---4--|
a|--3------5------3------5---5---5------3------5------3------5---5---5--|
e|----------------------------------------------------------------------|
   speak to me!        (speak to me) The pain you feel! (the pain you feel)

e|--------------------------------------------------------|
b|--------------------------------------------------------|
g|---4------2------5------------------4----2----5---4-----|  repeat one
d|---2------2------5------------------2----2----5---4--2--|  more time.
a|---2------0------3------------------2----0----3---2--2--|
e|-0----------------------------0----------------------0--|
 p.m.speak  the  word         the   word   is  all of  us

Bridge:
e|----------------------------------------------------------------------|
b|----------------------------------------------------------------------|
g|---5-------4-------5-----------7----------5-------4--------4------4---|
d|---2-------2-------2-----------4----------2-------2--------2------2---|
a|-------0--------0-------5/7-----------0-------0-------3----3---3------|
e|----------------------------------------------------------------------|

e|----------------------------------------------------------------------|
b|----------------------------------------------------------------------|
g|---5-------4-------5-----------7---7---7-------5-----4-----5-------5--|
d|---2-------2-------2-----------4---5---7-------2-----2-----5-------5--|
a|-------0--------0-------5/7------0---0------0-----0-----0--3---3---3--|
e|----------------------------------------------------------------------|

e|------------------------|
b|------------------------|
g|--(5)------4---------4x-|
d|--(5)------4---------4x-|
a|--(3)--3---2---------2x-|
e|------------------------|
           let ring---|

Chris De Garmo's solo part:
e|-------------------------------------------------------------------------|
b|-------------------------------------------------------------------------|
g|-2---------9---------5~~~---------------2---------9---------5~~~----7----|
d|-2---------9---------5~~~-----5---------2---------9---------5~~~----7----|
a|-0---------7---------3~~~-----5---------0---------7---------3~~~----5----|
e|------------------------------3------------------------------------------|

e|-----------0------------------3-------------------0----------------------|
b|-----------5------------------3-------------------5----------------------|
g|-2---------4---------5~~~-----0---------2---------4---------5~~~----7----|
d|-2---------2---------5~~~-----0---------2---------2---------5~~~----7----|
a|-0-------------------3~~~-----x---------0-------------------3~~~----5----|
e|------------------------------3------------------------------------------|

e|-----------0------------------3-------------------|
b|-----------5------------------3-------------------|
g|-2---------4---------5~~~-----0-------------------|
d|-2---------2---------5~~~-----0---------2---------|
a|-0-------------------3~~~-----x---------2---------|
e|------------------------------3---------0---------|

Main riff:
e|------------------------------------------------|
b|------------------------------------------------|
g|------------------------------------------------|   play 3 times.
d|-------2---------2--------------2--------0------|
a|----2---------3--------------2--------2---------|
e|-0---------0---------0-0-0--------0---------0-0-|
  p.m.--------------------------------------------|

e|-----------------------|-----------|-----------|-----------|
b|-----------------------|-----------|-----------|-----------|
g|-----------------------|-----2-----|-----4-----|-----2-----|
d|-------2---------2-----|-----2-----|-----2-----|-----2-----|
a|----2---------3--------|-----3-----|-----0-----|-----3-----|
e|-0---------0---------0-|-0---------|-----------|-0---------|
       says we're equal under law....will fall..their crown

Chorus:
e|----------------------------------------------------------------------|
b|--0------0------0------0---0---0------0------0------0------0---0---0--|
g|--0------0------0------0---0---0------0------0------0------0---0---0--|
d|--2------4------2------4---5---4------2------4------2------4---5---4--|
a|--3------5------3------5---5---5------3------5------3------5---5---5--|
e|----------------------------------------------------------------------|
   speak to me!        (speak to me) The pain you feel! (the pain you feel)
                                                         (the pain you feel)

e|--------------------------------------------------------|
b|--------------------------------------------------------|
g|---4------2------5------------------4----2----5---4-----|  repeat two
d|---2------2------5------------------2----2----5---4--2--|  more times.
a|---2------0------3------------------2----0----3---2--2--|
e|-0----------------------------0----------------------0--|
 p.m.speak  the  word         the   word   is  all of  us

e|-----------------------------------------------------|
b|-----------------------------------------------------|
g|---4------2------5------------------4----2----5---4--|
d|---2------2------5------------------2----2----5---4--|
a|---2------0------3------------------2----0----3---2--|
e|-0----------------------------0----------------------|
 p.m.speak  the  word         the   word   is  all of

Outro riff:
e|------------------------------------------------|
b|------------------------------------------------|
g|------------------------------------------------|   play 3 times.
d|-------2---------2--------------2--------0------|
a|----2---------3--------------2--------2---------|
e|-0---------0---------0-0-0--------0---------0-0-|
  p.m.--------------------------------------------|
  uuuuuuuuuuuuuuuuuuuuuuuuuuuuuuuuuuuuuuuuuuhhhhhh

e|-----------------------------|
b|-----------------------------|
g|-------------------------2\--|
d|-------2---------2-------2\--|
a|----2---------3----------3\--|
e|-0---------0---------0-0-----|
  p.m.-------------------------|
  hhhhhhhhhhhhhhhhhhhhhssSpeak!!

Lyrics:
Verse:
They've given me a mission,
Don't really know the game.
Yet I'm bent on submission,
Religion is to blame.
I'm the new messiah!
Death angel with a gun.
Dangerous in my silence,
Deadly to my cause.

Chorus:
Speak to me!!
The pain, you feel!!

Speak the word,
"Revolution"
The word is all of us.

Verse:
I've given my life to become what I am. 
To preach a new beginning,
To make you understand.
To reach a point of order!
Utopia in mind.
You've got to learn to sacrifice,
To leave whats now behind.

Chorus:
Speak to me!!
(Speak to me.).
The pain, you feel!!
(The pain, you feel.).

Speak the word,
The word is all of us.

Speak the word,
The word is all of us.

Bridge:
Seven years of power,
The corporation claw.
The rich control the government,
The media, the law.
To make some kind of difference,
And everyone must know.
Eradicate the fascists,
Revolution will grow.

~~Solo~~

Verse:
The system says we're equal under law,
But the streets of reality,
The weak and poor will fall.
Lets tip the power balance,
And tear down their crown.
Educate the masses,
We'll burn the White House down

Chorus:
Speak to me!!
(Speak to me.).
The pain, you feel!!
(The pain, you feel)

Speak to me!!
(Speak to me.).
The pain, you feel!!
(The pain you feel.).
(The pain you feel.).

Speak the word,
"Revolution"
The word is all of us.
Speak the word,
"Revolution"
The word is all of us.
Speak the word,
"Revolution/Speak to me"
The word is all of us.
Speak the word,
"Revolution"
The word is all of us
Speak!!

Key:
h- hammer on
p- pull off
*- trill
b- bend
b\- bend down with tremelo bar
^- Harm. (Natural Harm.)
/- Slide up
\- Slide down
~- Vibrato
p.m.- Palm Mute
x- Muffle string(s) with fretting hand.
x after a note or chord (immediately after) means
  to mute the note or chord.
comments
We did not receive enough feedback on this tab! Please rate:
print report bad tab
1 2 3 4 5
I want to post or [tab]
guest
You may want to rate the tab now too:
select rating
Please do not post tabs as comments. Select "correction" instead!