Oops, an error
Loading. Please wait.

Laughing Gas Tab

2,145 views 1 this week
4 commentsread comments
1 2 3 4 5
excellent!
x 6
Autoscroll
+/-
esc
set tempo
stop
Contributor
WARNING: You are trying to view
                                    content from Ultimate-Guitar.com
                                    in an unauthorized application,
                                    which is prohibited.

                                    Please use an official Ultimate
                                    Guitar Tabs application for iPhone,
                                    iPad or Android to access legitimate
                                    chords, guitar, bass, and drum tabs
                                    from Ultimate-Guitar.com database.

                                    Type "ultimate guitar tabs" in Apple
                                    App Store's or Android Market's
                                    search to find the application.
Gtr I (E A D G B E) - 'Randy Rhoads - dist electric'

Q=162
 4/4
  Gtr I
      PM----------------------------------------------------------------|
   E  E E E E E E E   E E E E E E E E   E E E E E E E E   E E E E E E E E
|-------------------|-----------------|-----------------|-----------------|
|-------------------|-----------------|-----------------|-----------------|
|-------------------|-----------------|-----------------|-----------------|
|-------------------|-----------------|-----------------|-----------------|
|-------2-2-2-2-2-2-|-2-2-2-2-2-2-2-2-|-2-2-2-2-2-2-2-2-|-2-2-2-2-2-2-2-2-|
|-15\-0-0-0-0-0-0-0-|-0-0-0-0-0-0-0-0-|-0-0-0-0-0-0-0-0-|-0-0-0-0-0-0-0-0-|


                      PM------------|
  E Q.   E   Q.       E E E E E E E E   E Q.    E   Q.    5x
|-----------------||------------------|-------------------||
|-3-3-------------||o-----------------|-3-3--------------o||
|-0-2--------2----||------------------|-0-2----(0)--2-----||
|-0-0--------2----||------------------|-0-0----(0)--2-----||
|------------0----||o-2-2-2-2-2-2-2-2-|-------------0----o||
|--------3b4------||--0-0-0-0-0-0-0-0-|---------3b4-------||
                                      notes in () played ad lib on repeats

   Verse 1
    PM------------|
    E E E E E E E E   E Q.    E   Q.    4x Q  Q  H
||------------------|-------------------||------------||
||o-----------------|-3-3--------------o||-3----------||
||------------------|-0-2----(0)--2-----||-2----------||
||------------------|-0-0----(0)--2-----||-0----------||
||o-2-2-2-2-2-2-2-2-|-------------0----o||------------||
||--0-0-0-0-0-0-0-0-|---------3b4-------||------------||


 Chorus
  Q  E E E E E E   E E E E +Q   E E   Q  E E E E E E   E E E E Q  Q
|----------------|------------------|----------------|----------------|
|-3----3---3---0-|---2---3-(3)--x-x-|-4----4---4---4-|----------------|
|-2----2---2---0-|---2---2-(2)--x-x-|-4----4---4---4-|---2-2---2------|
|-0----0---0---0-|---2---0-(0)--x-x-|-4----4---4---4-|---2-2---2------|
|----------------|---0--------------|-2----2---2---2-|---0-0---0------|
|--------------3-|------------------|----------------|----------------|


                                                      PM------------|
  Q  E E E E E E   E E E E +Q   E E   Q  E E E Q.     E E E E E E E E
|----------------|------------------|---------------|------------------|
|-3----3---3---0-|---2---3-(3)--x-x-|-3----3---3----|------------------|
|-2----2---2---0-|---2---2-(2)--x-x-|-2----2---2----|------------------|
|-0----0---0---0-|---2---0-(0)--x-x-|-0----0---0----|------------------|
|----------------|---0--------------|---------------|-2-2-2-2-2-2-2-2--|
|--------------3-|------------------|---------------|-0-0-0-0-0-0-0-0--|



  PM--------------------------------|
  E E E E E E E E     E E E E E E E E   E Q.    E   Q.
|-----------------||------------------|-------------------||
|-----------------||o-----------------|-3-3--------------o||
|-----------------||------------------|-0-2----(0)--2-----||
|-----------------||------------------|-0-0----(0)--2-----||
|-2-2-2-2-2-2-2-2-||o-2-2-2-2-2-2-2-2-|-------------0----o||
|-0-0-0-0-0-0-0-0-||--0-0-0-0-0-0-0-0-|---------3b4-------||


   Verse 2
    PM------------|
    E E E E E E E E   E Q.    E   Q.    4x Q  Q  H
||------------------|-------------------||------------||
||o-----------------|-3-3--------------o||-3----------||
||------------------|-0-2----(0)--2-----||-2----------||
||------------------|-0-0----(0)--2-----||-0----------||
||o-2-2-2-2-2-2-2-2-|-------------0----o||------------||
||--0-0-0-0-0-0-0-0-|---------3b4-------||------------||


 Chorus                                                       bend neck
                                                               \0.5___/
                                                               |----3-----|
  Q  E E E E E E   E E E E +Q   E E   Q  E E E E E E   E E E E Q     +Q  +Q
|----------------|------------------|----------------|-----------------------|
|-3----3---3---0-|---2---3-(3)--x-x-|-4----4---4---4-|-----------------------|
|-2----2---2---0-|---2---2-(2)--x-x-|-4----4---4---4-|---2-2---2-----(2)-(2)-|
|-0----0---0---0-|---2---0-(0)--x-x-|-4----4---4---4-|---2-2---2-----(2)-(2)-|
|----------------|---0--------------|-2----2---2---2-|---0-0---0-----(0)-(0)-|
|--------------3-|------------------|----------------|-----------------------|


  Q  E E E E E E   E E E E +Q   E E   Q  E E E Q.
|----------------|------------------|---------------|
|-3----3---3---0-|---2---3-(3)--x-x-|-3----3---3----|
|-2----2---2---0-|---2---2-(2)--x-x-|-2----2---2----|
|-0----0---0---0-|---2---0-(0)--x-x-|-0----0---0----|
|----------------|---0--------------|---------------|
|--------------3-|------------------|---------------|


  PM------------|              PM
  E E E E E E E E   Q  Q  Q  E E   E  E   Q   H
|-----------------|--------------|-----------------||
|-----------------|--------------|---(8)-----------||
|-----------------|--------------|-7---------------||
|-9-9-9-9-9-9-9-9-|-9------------|-6-----<7>-------||
|-7-7-7-7-7-7-7-7-|-7------------|-7---------------||
|-0-0-0-0-0-0-0-0-|------------0-|-----------------||


 Guitar Solo
w/phaser next 15 bars
      |-3-|
  S S S S S E E E S S S S E      +S  +S  E S S E E E E E
|-3p0-2p0----------------------|----------------------------|
|---------0---0-------3p0------|----------------------------|
|-----------2---0-2p0-----2b4==|=(2)r(2)p0-2p0---0---0-2b3==|
|------------------------------|---------------2---2--------|
|------------------------------|----------------------------|
|------------------------------|----------------------------|


                                          ~~
  +E   S S E E E    +S  S S S E   E E E E E. S E E
|-------------------------------|--------------0---|
|------3-3-3-3------------------|------------0---0-|
|-(3)r---------2pb3r(2)p0-2p0---|-0-----0----------|
|-----------------------------2-|---0-2---2--------|
|-------------------------------|------------------|
|-------------------------------|------------------|


  S S S S S S S S S S S S S S S S
|---0-2p0---------------------------|
|-3-------3p0-2p0-3p0-2p0-----------|
|-------------------------3p0-2p0---|
|-----------------------------------|
|-----------------------------------|
|-----------------------------------|


            ~
  E   E E E Q  E E      +Q    E   E a S S E E E   E E E E Q  E E
|---------------------|-------------------------|-----------------|
|-----0---------------|-------------------------|-----------------|
|-2b4---2-0----0-2b4==|=(4)r--2b4-0-------------|--------------1--|
|-----------2---------|-----------0-0h2p0---0---|------------4----|
|---------------------|-------------------2---0-|-2---------------|
|---------------------|-------------------------|---3-2-0-0-------|


  E E E E +E  E Q    E E E E +Q   E E   E E E E +E  E Q
|-----0-0-(0)------|-------0-(0)------|-----0-0-(0)------|
|---3---0-(0)------|-------0-(0)------|---0---0-(0)------|
|-2-----1-(1)------|-4-2---4-(4)----1-|-2-----1-(1)---4--|
|-------------0-2--|-2-0---2-(2)--4---|-------------0-2--|
|------------------|------------------|------------------|
|------------------|------------------|------------------|


                                       2/4       4/4
  E E E E +Q   E E   E E E E +E  E Q    E E E E   +W
|-------0-(0)------|-----0-0-(0)------|-------0-|-(0)----||
|-------0-(0)------|---0---0-(0)------|-------0-|-(0)----||
|-4-2---4-(4)----1-|-2-----1-(1)---4--|-4-2---4-|-(4)----||
|-2-0---2-(2)--4---|-------------0-2--|-2-0---2-|-(2)----||
|------------------|------------------|---------|--------||
|------------------|------------------|---------|--------||


 Bridge
  Q  Q  +Q.   E   Q  H.        Q  Q  +Q.   E
|----0--(0)-----|------------|---------------|
|----0--(0)-----|------------|----0--(0)-----|
|----4--(4)-----|------------|-0-------------|
|----2--(2)-----|-2--2-------|-0-------------|
|----2--(2)---0-|-0--0-------|---------------|
|-0-------------|------------|-3-----------0-|


  Q  Q  +Q.   E   Q  H    Q    Q  Q  Q  E E   Q  H    Q
|---------------|----0-------|--------------|-------------||
|---------------|---------0--|----------0-0-|-0--0--------||
|-4--4--(4)-----|---------1--|-2--2--2--0-0-|-0--0--------||
|-2--2--(2)-----|------------|-2------------|-0-------0---||
|-2--2--(2)-----|-2----------|-0------------|-------------||
|-0--0--(0)---0-|-0----------|--------------|-3-----------||

w/delay              Band out
  PM----------------------------------------------------------------|
  E S S E E E E E S S   E S S E S S E E E S S   E E E S S E S S E S S
|---------------------|-----------------------|------------------------|
|---------------------|-----------------------|------------------------|
|---------0-2-0---0---|---------0-0-------0-0-|---0-2-0----------------|
|-2-0-0-2---2-0-2---0-|-2-0-0-2-----2-0-2-----|-2-0-2-0-0-2-0-0-2-0-0--|
|---------------------|-----------------------|------------------------|
|---------------------|-----------------------|------------------------|


  PM----------------------------------------------------|   PM  PM
  E S S E S S E S S E S S   E S S E S S E S S E E   E E E E E E E E
|-------------------------|-----------------------|-----------------|
|-------------------------|-----------------------|-----------------|
|-------2-0---------2-0---|---------------------0-|-------4---4---4-|
|-2-0-0-2-0-0-2-0-0-2-0-0-|-2-0-0-2-0-0-2-0-0-2---|-6-4-6---6---6---|
|-------------------------|-----------------------|-----------------|
|-------------------------|-----------------------|-----------------|


   E S S E E  E S S  E S S
|-------------------10-----|
|------------10-----10-----|
|----7-7-9-7--9-7-7----7-7-|
|-/9-----------------------|
|--------------------------|
|--------------------------|


   E  S  S  E  S  S  E  E  E.S   E S S E E E S S E E
|-15---------------------------|---------------------|
|-15-------15------------------|---------------------|
|----12-12-12-------14-12------|---------0-------2-0-|
|-------------12-12-12----14S0-|-2-0-0-2---2-0-0-----|
|------------------------------|---------------------|
|------------------------------|---------------------|


  E S S E E E Q   E        +H          +E   +E    E E
|-----------------------|--------------------------------|
|-----------------------|--------------------------------|
|---------0---0--14b15==|=(15)b16=====(16)-(14)r\-0-2b4==|
|-2-0-0-2---2-0---------|-------------------------0------|
|-------------0---------|-------------------------0------|
|-----------------------|--------------------------------|


  +W           +S  +E. Q  Q.   E
|------------|-------------------||
|------------|-------------------||
|-(4)--------|-(4)-(4)-4r=2------||
|------------|-----------------0-||
|------------|-------------------||
|------------|-------------------||


 7/8                         4/4
                                             PM|
      |-3-|
  S S S S S a    +H     +E    a Q  a E.S S S S S S S E
|---------------------------|--------------------------|
|---------------------------|--------------------------|
|-2-4-2-4-2-4b6==(6)r===(4)-|--------------------------|
|---------------------------|-0h2--0h2p0-2p0---------0-|
|---------------------------|----------------2-2-2p0---|
|---------------------------|--------------------------|


  \0.5________/          \0.5__/
  a     H    +E  +Q.     a     H    +Q    Q
|----------------------|------------------------|
|----------------------|------------------------|
|----------------------|------------------------|
|----------------------|------------------------|
|----------------------|------------------------|
|-0-----0----(0)-(0)---|-0-----0----(0)--15\----|
pitch lowered with tuning peg

  PM----------------------------------------------------------------|
  E S S E S S E S S E S S   E S S E S S E S S E S S   E S S E S S E E S S E
|-------------------------|-------------------------|-------------------------|
|-------------------------|-------------------------|-------------------------|
|---------0-----0-----0---|---0-----0-----0-----0---|---0-----0-----0-----0---|
|-2-0-0-2---0-2---0-2-0-0-|-2-0-0-2-0-0-2-0-0-2-0-0-|-2-0-0-2-0-0-2-0-2p0-0---|
|-------------------------|-------------------------|-------------------------|
|-------------------------|-------------------------|-------------------------|


  a W          H.      +E. +S
|------------|-----------------|
|------------|-0-------(0)-(0)-| with neck vol off
|---0--------|-0-------(0)-(0)-| toggle pickup switch
|-2p0--------|-0-------(0)-(0)-| with rhythm pattern in next bars
|------------|-----------------|
|------------|-----------------|


  +E. +S  +E. +S  +E. +S  +E. +S    +E. +S  +H      Q
|---------------------------------|---------------------|
|-(0)-(0)-(0)-(0)-(0)-(0)-(0)-(0)-|-(0)-(0)-(0)---------|
|-(0)-(0)-(0)-(0)-(0)-(0)-(0)-(0)-|-(0)-(0)-(0)---------|
|-(0)-(0)-(0)-(0)-(0)-(0)-(0)-(0)-|-(0)-(0)-(0)---------|
|---------------------------------|---------------------|
|---------------------------------|----------------15\--|


  E S S S S S S S S S S S S S S   S S S S S S S S S S S S E   E
|---------------3p0-2p0-3p0-2p0-|-------------------------------|
|-0-----3p0-2p0-3p0-2p0-3p0-2p0-|-3p0-2p0-----------------------|
|-0-2p0-------------------------|-3p0-2p0-2p0-2p0---------------|
|-0-----------------------------|---------2p0-2p0-2p0-----------|
|-------------------------------|---------------------2p0-------|
|-------------------------------|-------------------------3b4-0-|


   \1.5____________/
  +W              +W           +Q   +H.
|---------------|------------|----------------|
|---------------|------------|----------------|
|---------------|------------|----------------|
|---------------|------------|----------------|
|---------------|------------|----------------|
|-(0)-----------|-(0)--------|-(0)--(0)b1=====|
pitch altered with tuning peg

                PM----|
  E E Q  H      E S S Q  +Q    Q     Q  S    +S  +E  Q  S    +S  +E
|-------------|--------------------|---------------------------------|
|-------------|--------------------|---------------------------------|
|-------------|--------------------|---------------------------------|
|-------------|--------------------|-----------------5--7b8==(8)r(7)-|
|---2-3-------|-------2--(2)-------|-5--7b8==(8)r(7)-----------------|
|-1-1-1--1----|-1-1-1-1r=(0)--15\--|---------------------------------|


                                                     ~
  a E E  E E E E S S  S S   S S  E E E  Q      E E   Q  E E  Q.    S   S
|-------10-8-7-8-8p7------|-----10-8-7-------------|----------------------|
|--------------------10-7-|-8p7-10-8-7-10b12--10-8-|-7--7-8-10------------|
|-----7-------------------|------------------------|--------------<7>-<7>-|
|-7s9---------------------|------------------------|----------------------|
|-------------------------|------------------------|----------------------|
|-------------------------|------------------------|----------------------|


                                   5/8                    2/4
  PM------------|
  S S S S S S S S S S S S S S S S    S S S S S S S S S S    S S S S  S  S S S
|---------------------------------|----------------------|--------------------|
|-8p7-----8p7-----8-7-----8-7-----|-10-7-8p7-----8p7-----|-10p7h8p7-----------|
|-----9p7-----9-7-----9-7-----9-7-|----------9-7-----9-7-|-----------9p=7-9p7-|
|---------------------------------|----------------------|----------(0)-------|
|---------------------------------|----------------------|--------------------|
|---------------------------------|----------------------|--------------------|


 4/4
  E E Q     S S S S S S S S   S S S S S S S S S S S S S S S S
|---------------------------|---------------------------------|
|---------------------------|---------------------------------|
|-6-6-4tr6--2-2-4-2S7-7-9-7-|-6-6-7-6-4-4-6-4-2-2-4-2-7-7-9-7-|
|---------------------------|---------------------------------|
|---------------------------|---------------------------------|
|---------------------------|---------------------------------|


  S S  S S  S  S  S  S  S  S  S  S  S  S  S  S
|-------------------------------------------------|
|-------------------------------------------------|
|-9-9-11-9-11-11-12p11-12-12-14p12-14-14-15p14----|
|-------------------------------------------------|
|-------------------------------------------------|
|-------------------------------------------------|


 5/4
   S  S  S  S  S  S  S  S  S  S  S  S  S  S  S  S  S  S  S  S
|-------------------------------------------------------------|
|-------------------------------------------------------------|
|-17p15-18p15-18p16-20p16-19p16-19p16-18p15-18p15-17p14-15p12-|
|-------------------------------------------------------------|
|-------------------------------------------------------------|
|-------------------------------------------------------------|


 5/8
   S  S  S  S  S  S  S  S  S  S    S  S  S  S  S  S  S  S  S  S
|-------------------------------|---------------------------------|
|-------------------------------|---------------------------------|
|-14p12-14p12-------15p12-------|-15p12-14p12-------14p12---------|
|-------------14p12-------14p12-|-------------14p12-------14p12---|
|-------------------------------|---------------------------------|
|-------------------------------|---------------------------------|


 7/8                                4/4                           3/8
   S  S  S  S  S  S  S  S  Q   S S   S S S S S S S S S S E S S E   E E S S
|----------------------------------|-----------------------------|----------|
|----------------------------------|-----------------------------|----------|
|-15p12-14p12----------------------|-----------------------------|----------|
|-------------14p12-14p12------7-5-|-4-4-4-4-2-2-4-2-0-0-0-------|----------|
|-------------------------14\------|-----------------------2p0---|----------|
|----------------------------------|---------------------------3-|-3-2-2p0--|


                                            Frre Time approx. Q=92
 4/4
  W          W          W          W          H    +H
|----------|-3--------|-0--------|----------|-------------|
|-3--------|-3--------|-0--------|-3--------|-------------|
|-2--------|-0--------|-1--------|-0--------|-2----(2)----|
|-0--------|-0--------|-2--------|-0--------|-2----(2)----|
|----------|----------|-2--------|----------|-0----(0)----|
|----------|----------|-0--------|----------|-------------|


 5/4                            4/4
  +H     +E     +E  E +Q.        +H..       S  S
|------------------------------|-----------------|
|------------------------------|-----------------|
|-(2)----(2)----(2)-2-(2)------|-(2)--------x/---|
|-(2)----(2)----(2)-2-(2)------|-(2)--------x/---|
|-(0)----(0)b1==(1)-0r(0)b1====|=(1)r-------x/---|
|------------------------------|---------------0-|


                           3/4
                                  ~
  E S S E S S E S S E S S   E S S H
|-------------------------|------------||
|-------------------------|------------||
|-------------------------|------------||
|-------------------------|------------||
|-0-----------------------|-----0------||
|---5p3h5-5p3h5-5p3h5-5p3h|=5-----3----||


  Faster Q=116
 4/4
  |----6----| |----6----| |----6----| |----6----|
  S S S S S S S S S S S S S S S S S S S S S S S S
|-------------------------------------------------|
|-------------------------------------------------|
|-------------------------------------------------|
|-------------------------------------------------|
|---------3-3---------3-3---------3-3---------3-3-|
|-5-5-3-5-----5-5-3-5-----5-5-3-5-----5-5-3-5-----|


  |----6----| |----6----| |----6----| |--6--|
  S S S S S S S S S S S S S S S S S S E S S E
|-----------------------------------------------|
|-----------------------------------------------|
|-------------------------------------5---5h7---|
|---------------------------------5-5---7-------|
|-5-5-3-5-7-7-5-5-3-5-7-7-7-7-5-7---------------|
|-----------------------------------------------|


          |----6----| |----6----| |----6----|
  S S S S S S S S S S S S S S S S S S S S S S
|-5-5-5-5-8p7p5---5---------------------------|
|---------------8---8-5h6p5---5---------------|
|---------------------------7---7-4h5p4---4---|
|---------------------------------------7---7-|
|---------------------------------------------|
|---------------------------------------------|


  |----6----| |----6----| |---6---| |----6----|
  S S S S S S S S S S S S E S S S S S S S S S S
|------------------------------------------------|
|------------------------------------------------|
|------------------------------------------------|
|-2h3p2---2---------0-2h3p2---------2h3p2-5p2p0--|
|-------5---5-2h3p2---------5-2h3h5--------------|
|------------------------------------------------|


 3/8              5/4
                             ~~~~~~~~~~~~~~~~~~~~~~~~~~~~~~~
  |-3-|
  S S S E   E      +H.      +Q   +Q     +W         +E  +E
|----------------|--------------------|---------------------:
|----------------|--------------------|---------------------:
|----------------|--------------------|---------------------:
|----------------|--------------------|---------------------:
|-2-3-2----------|--------------------|---------------------:
|-------3b4-2b4==|=(4)------(4)--(24)--|-(4)--------(4)-(4)/-:


 2/4                       3/8
  |----6----| |----6----|   |-3-|
  S S S S S S S S S S S S   S S S S S S S
|-------------------------|---------------|
|-------------------------|-----------7---|
|-------------------------|-------5-7-7s9-|
|-------5-----------5-----|---5-7---------|
|-7-5-7---7-7-7-5-7---7-7-|-7-------------|
|-------------------------|---------------|


 4/4
  S S E a  S S S S  S  S S S  S S S  S
|-5-5-5------8-8-8-11-10-8-8-----------|
|-------8s10-----------------10-8-7-10-|
|--------------------------------------|
|--------------------------------------|
|--------------------------------------|
|--------------------------------------|


 2/4                          5/8
         |--3--|                |--3--|        |--3--|
   S  S  S  S  S  S  S  S  S    S  S  S  S  S  S  S  S   S  S  S  S
|-12-11-10-------------------|-15-15-14-12--------------------------|
|----------12-12-------13-13-|-------------15-15-15-13-----17-20p17-|
|----------------14-14-------|-------------------------/17----------|
|----------------------------|--------------------------------------|
|----------------------------|--------------------------------------|
|----------------------------|--------------------------------------|


 4/4
         |--3--|        |--3--|
   E     S  S  S  E     S  S  S  E     T  T  T  T  E.  T  T
|-------17-------------17-------------17--------------17-17--|
|-20b22----20p17-20b22----20p17-20b22----20-20p17-20---------|
|------------------------------------------------------------|
|------------------------------------------------------------|
|------------------------------------------------------------|
|------------------------------------------------------------|


   S  S  S  S  S  S  S  S  S  S  S  S  S  S  S  S
|-20-19-17-17-------------------------------------|
|-------------20-19-17-17----------20-20-19p17----|
|-------------------------19-19p17-------------19-|
|-------------------------------------------------|
|-------------------------------------------------|
|-------------------------------------------------|


  H.=H
 2/4                                3/4
                                                           ~~~~
         |--3--|  |------6-------|
   S  S  S  S  S  S  S  S  S  S  S    S      +E   S  +E   +E   +E    a  S  S
|----------------------------------|-----------------------------------------|
|----------------------------------|-19b20==(20)-19r(19)-(19)-(19)-(19)s2s21-|
|-20-19p17----17----------------17-|-19b21==(20)-19r(19)-----------(19)s2s21-|
|----------19----19p17----17-19----|-----------------------------------------|
|----------------------19----------|-----------------------------------------|
|----------------------------------|-----------------------------------------|


  slower Q=104
   |------6-------|  |------6-------|  |------6-------|
   S  S  S  S  S  S  S  S  S  S  S  S  S  S  S  S  S  S
|-21-18-17-20-17-16-19-16-15-18-15-13-17-14-12-16-13-11-||
|-------------------------------------------------------||
|-------------------------------------------------------||
|-------------------------------------------------------||
|-------------------------------------------------------||
|-------------------------------------------------------||


   |------6------|  |-----6------|  |-3-|
   S  S  S  S  S S  S  S S  S  S S  S S S T T T T
|-15-12-10-14-11-9-13-10-8-12-10-8-10-8-6-9-7-5p0--|
|--------------------------------------------------|
|--------------------------------------------------|
|--------------------------------------------------|
|--------------------------------------------------|
|--------------------------------------------------|


  faster Q=120
 4/4
  |----6----| |----6----| |----6----| |----6----|
  S S S S S S S S S S S S S S S S S S S S S S S S
|-8p5p0-8p5p0-8p5p0-8p5p0-7p4p0-7p4p0-7p4p0-7p4p0-|
|-------------------------------------------------|
|-------------------------------------------------|
|-------------------------------------------------|
|-------------------------------------------------|
|-------------------------------------------------|


  |----6----| |----6----| |----6----| |----6----|
  S S S S S S S S S S S S S S S S S S S S S S S S
|-8p5p0-8p5p0-7p4p0-7p4p0-7p4p0-7p4p0-7p4p0-7p5p0-|
|-------------------------------------------------|
|-------------------------------------------------|
|-------------------------------------------------|
|-------------------------------------------------|
|-------------------------------------------------|


   |----6-----|  |----6-----|  |----6-----|  |----6-----|
   S S S  S S S  S S S  S S S  S S S  S S S  S S S  S S S
|-12p8p0-12p8p0-12p8p0-12p8p0-10p7p0-10p7p0-10p7p0-10p7p0-|
|---------------------------------------------------------|
|---------------------------------------------------------|
|---------------------------------------------------------|
|---------------------------------------------------------|
|---------------------------------------------------------|


  |----6----| |----6----| |----6----| |----6----|
  S S S S S S S S S S S S S S S S S S S S S S S S
|-8p5p0-8p5p0-7p4p0-7p4p0-7p4p0-7p4p0-7p4p0-7p4p0--|
|--------------------------------------------------|
|--------------------------------------------------|
|--------------------------------------------------|
|--------------------------------------------------|
|--------------------------------------------------|


   |----6-----|  |----6-----|  |----6-----|  |----6-----|
   S S S  S S S  S S S  S S S  S S S  S S S  S S S  S S S
|---------------------------------------------------------|
|-12p8p0-12p8p0-12p8p0-12p8p0-10p7p0-10p7p0-10p7p0-10p7p0-|
|---------------------------------------------------------|
|---------------------------------------------------------|
|---------------------------------------------------------|
|---------------------------------------------------------|


 2/4
  |----6----| |----6----|
  S S S S S S S S S S S S
|---------------------------|
|-8p5p0-8p5p0-8p5p0-8p5p0h==|
|---------------------------|
|---------------------------|
|---------------------------|
|---------------------------|


 5/8
     T      T      T      T      T
            |-3-|  |-3-|  |-3-|
  T  T T T  S S S  S S S  S S S  T T T T
|----------------------------------------|
|-4-12p4h7-12p4h7-12p4h7-12p4h7-12p4h7p4-|
|----------------------------------------|
|----------------------------------------|
|----------------------------------------|
|----------------------------------------|


 2/4
   T      T        T        T      T
   |-3-|                    |---5----|
   S S S  T T T T  T T T T  T T T  T T
|---------------------------------------|
|-12p5h8-12p8p5h8-12p5h8p5-12p5h8-12p8--|
|---------------------------------------|
|---------------------------------------|
|---------------------------------------|
|---------------------------------------|


 5/8
   T      T      T      T      T
   |-3-|  |-3-|  |-3-|  |-3-|  |-3-|
   S S S  S S S  S S S  S S S  S S S
|-13p4h7-13p4h7-13p4h7-13p4h7-13p4h7p|
|------------------------------------|
|------------------------------------|
|------------------------------------|
|------------------------------------|
|------------------------------------|


 4/4
       T      T      T      T      T      T      T      T
              |-3-|  |----6-----|  |----6-----|  |----6-----|
  a T  T T T  S S S  S S S  S S S  S S S  S S S  S S S  S S S
|-4s5h13p5h8-13p5h8-12p5h8-12p5h8-12p5h8-12p5h8-12p5h8-12p5h8p=|
|--------------------------------------------------------------|
|--------------------------------------------------------------|
|--------------------------------------------------------------|
|--------------------------------------------------------------|
|--------------------------------------------------------------|


                                                     2/4
          T       T       T       T    T       T
          |-----6------|  |-3--|       |-3--|                      |-3-|
  E  S.T  S S  S  S S  S  S S  S  S S  S  S S  S. T   S  S S  S a  E E E
|-7h10p7-15p7h10-15p7h10-15p7h10-15p7-15p10p7-15p10p|=7-10-7-10-9s12-0-0-|
|---------------------------------------------------|----------------0-0-|
|---------------------------------------------------|----------------0-0-|
|---------------------------------------------------|------------------0-|
|---------------------------------------------------|--------------------|
|---------------------------------------------------|--------------------|


 4/4
                  |-----3-----|
   H.          a  E  a  E  a  E
|-------------------------------|
|-------------------------------|
|-14b15=======17p14-17p14-17p14-|
|-------------------------------|
|-------------------------------|
|-------------------------------|
tap 17 fret /pick

             |-----3-----|   |--3---|     |-----3-----|
   a  Q   a  E  a  E  a  E  +Q   a  E  a  E  a  E  a  E
|-------------------------------------------------------|
|-------------------------------------------------------|
|-17p14--17p14-17p14-17p14-(14)-17p14-17p14-17p14-17p14-|
|-------------------------------------------------------|
|-------------------------------------------------------|
|-------------------------------------------------------|


      |-----3-----|   |--3---|     |-----3-----|     |-----3-----|
   a  E  a  E  a  E  +Q   a  E  a  E  a  E  a  E  a  E  a  E  a  E
|----------------------------------------------------------------------|
|----------------------------------------------------------------------|
|-17p14-17p14-17p14-(14)-17p14-17p14-17p14-17p14-17p14-17p14-17p14b16==|
|----------------------------------------------------------------------|
|----------------------------------------------------------------------|
|----------------------------------------------------------------------|


      |-----3-----|     |-----3-----|      |-------3-------|     |-----3-----|
   a  E  a  E  a  E  a  E  a  E  a  E  a   E      a  E  a  E  a  E  a  E  a  E
|-------------------------------------------------------------------------------|
|-------------------------------------------------------------------------------|
|-17p14-17p14-17p14-17p14-17p14-17p14-17p=14-----17p14-17p14-17p14-17p14-17p14--|
|----------------------------------------h14pb16--------------------------------|
|-------------------------------------------------------------------------------|
|-------------------------------------------------------------------------------|


      |-----3-----|
   a  E  a  E  a  E  a  S  a  S  +S   S  H
|-------------------------------------------------|
|---------------------------------------14b16=====|
|-17p14-17p14-17p14-17p14-17p14r(14)p12-14b16=====|
|-------------------------------------------------|
|-------------------------------------------------|
|-------------------------------------------------|


                                            7/4 bend neck
                                              \0.5____/
    ~~~~~
                  |---3---|   |-3--| |-3-|
   +E    +S   S   E   E   E   E  E E E E E   +Q      +H     +H.       Q
|----------------------------<5>-----0h3---|--------------------------------|
|-(16)r----------<5>-----<5>-------5-------|--------------------------------|
|-(16)r-(14)S<5>-----<5>-----------------5-|-(5)-----(5)----(5)-------------|
|--------------------------------0---------|--------------------------------|
|------------------------------------------|--------------------------------|
|------------------------------------------|-------------------------19\----|


  in time Q=180
 4/4
  PM----------|       PM----------|         PM------------------|
  E S S S S S S E E E S S   S S S S E E E E E S S   S S S S E S S E E E S S
|-0-0-0-0-0-0-0-5-7-9-0-0-|-0-0-0-0-5-9-7-4-0-0-0-|-0-0-0-0-0-0-0-5-7-9-0-9s==|
|-------------------------|-----------------------|---------------------------|
|-------------------------|-----------------------|---------------------------|
|-------------------------|-----------------------|---------------------------|
|-------------------------|-----------------------|---------------------------|
|-------------------------|-----------------------|---------------------------|


  slower Q=106
 3/4                           2/4       4/4
                        ~
      |--3--| |-3--|
   E  S  S  S S  S S  E E  E    Q  E. S   W          +W
|-12-10h12p10-9h10p9----------|---------|----------|--------|
|--------------------10-------|-------3-|-3--------|-(3)----|
|-----------------------9-----|-2-----2-|-2--------|-(2)----|
|-------------------------11\-|-2-----0-|-0--------|-(0)----|
|-----------------------------|-0--2----|-0--------|-(0)----|
|-----------------------------|----0----|----------|--------|


 3/4
  +H.
|----------|
|-(3)------|
|-(2)------|
|-(0)------|
|-(0)------|
|----------|


 5/4
    |------6-------|                            |--3--|     |--3--|  |------6-------|
    S  S  S  S  S  S  S      S  S   T  T  E     S  S  S  E  S  S  S  S  S  S  S  S  S
|-----17---------------------------------------17----------17----17-------17----17h19--|
|-/17----17-20-20p17-20b21==21-21r-20p17-20b22----20p17-20----20----20-20----20--------|
|--------------------------------------------------------------------------------------|
|--------------------------------------------------------------------------------------|
|--------------------------------------------------------------------------------------|
|--------------------------------------------------------------------------------------|


 7/8
   |------6-------|  |------6-------|  |--3--|
   S  S  S  S  S  S  S  S  S  S  S  S  S  S  S  S  T  T  E
|-20-19-17-17----17-20-19-17-17----17-21-19-17-17-17-19-----|
|-------------20----------------20----------------------20\-|
|-----------------------------------------------------------|
|-----------------------------------------------------------|
|-----------------------------------------------------------|
|-----------------------------------------------------------|


 4/4
   |------6-------|  |-----6-----|     |------6-------|  |-----6------|
   S  S  S  S  S  S  S  S  E  S  S  a  S  S  S  S  S  S  E  S  S  S   S
|-12-12-12----------12h15p12-15p12-12h15-15p12-15p12-12-15-16-17-----12--|
|----------15-13h15------------------------------------------------------|
|----------------------------------------------------------------(0)-----|
|------------------------------------------------------------------------|
|------------------------------------------------------------------------|
|------------------------------------------------------------------------|


   S  S  S  S  E  E  S  S  S  S  S S S  S
|-12-15p12--------------------------------|
|----------15-13--------------------------|
|----------------14-12p=9--7s=9-12-9s7----|
|-------------------(0)---(0)----------11-|
|-----------------------------------------|
|-----------------------------------------|


 5/4               4/4
   ~~~
   H.       H       W          H    Q   Q
|-----------------|----------|---------------|
|-10-------10\----|----------|---------------|
|-----------------|----------|---------------|
|-11-------11\----|----------|---------(0)---|
|-----------------|----------|---------------|
|-----------------|----------|---------18\---|


  faster Q=116
  |----6----| |----6----| |----6----|
  S S S S S S S S S S S S S S S S S S E E
|---------------------------------3-3-5---|
|-----------------------------3-5---------|
|-----------------------2-4-5-------------|
|-------------2-3-5-4-5-------------------|
|-------2-3-5-----------------------------|
|-1-3-5---------------------------------0-|


 5/4
  |----6----| |----6----| |----6----|     |----6----|
  S S S S S S S S S S S S S S S S S S E E S S S S S S
|-----------------------------------2-5-----------------|
|-------------------------------3-5---------------------|
|-------------------------2-4-5-------------------------|
|---------------2-3-5-4-5-------------------------------|
|---------2-3-5---------------------------------2-3-5---|
|-1-1-3-5-------------------------------0-1-3-5---------|


  faster Q=132
 5/8                       2/4
      |-3-|     |-3-|
  S S S S S S S S S S S S   T T T T S S E   E
|-------------------------|-------------------|
|-------------------------|-------------------|
|-----------2h4h5p4p2h4p2-|-------------------|
|-2-3-5p4h5---------------|-4h5p4p2h4p2-------|
|-------------------------|-------------5b6-3-|
|-------------------------|-------------------|


 9/8
        PM--|
    |-3-|
  E S S S S S S S S S S S S S S S S S
|-------------------------------------|
|-------------------------------------|
|-------------------------------------|
|---5s2-2-2-2-0h1p0-------2h3p2p0-2p0-|
|-0-----------------3-2-2-------------|
|-------------------------------------|


  slower Q=116
 4/4           3/4
  W              a        +Q         +Q.      +E
|-------------|--------------------------------------|
|-------------|--------------------------------------|
|-2tr0--------|-(2tr0)b3==(2tr0)b4===(2tr0)r==(2tr0)-|
|-------------|--------------------------------------|
|-------------|--------------------------------------|
|-------------|--------------------------------------|
                raise pitch by pressing string behind nut

 2/4                   4/4
                |-3-|
  a    +Q   +E  S S S   H.      E  E
|---------------------|--------------|
|---------------------|--------------|
|-2b3==(3)r=(2)p0-0-0-|--------------|
|---------------------|-0----------0-|
|---------------------|------------0-|
|---------------------|---------x/-0-|


  slower Q.=84
 6/8
  |-3-| |-3-| |-3-| |-3-| |-3-| |-3-|
  S S S S S S S S S S S S S S S S S S
|-------------------------------------|
|-------------------------------------|
|-------------------------------4h5h7-|
|-------------2h3h5-------4h5h7-------|
|-------2h3h5-------4h5h7-------------|
|-2h3h5-------------------------------|


  |-3-| |-3-|         |--3--| |--3--|
  S S S S S S T T T T S  S  S S  S  S  S  S
|--------------------------------------------|
|--------------------------------------------|
|-------------6h7h9--------------------------|
|-------6h7h9-----------------9h11-12s13-11--|
|-6h7h9-------------8s9h10h12----------------|
|--------------------------------------------|


 3/8                    2/4
  |--3--| |--3--|
  S  S  S S  S  S S  S   E  S     S  S  S  a  E
|----------------------|---------------12-------|
|----------------------|---------12-15----15s16-|
|-----------------9h12-|-x-14b15----------------|
|---------9h10h12------|------------------------|
|-9h10h12--------------|------------------------|
|----------------------|------------------------|


 3/4
                                   ~~~~~
                          |--3--|
   a  E  S  T  T  +S   S  S  S  S  Q
|-15p12-15-13-15-(15)-18-15-18-15-15b17--|
|----------------------------------------|
|----------------------------------------|
|----------------------------------------|
|----------------------------------------|
|----------------------------------------|



 5/4
   S  S  E  +H          +Q.    S  S
|-15h19p15-(15)b17=====(17)r==15\---|
|-----------------------------------|
|---------------------------------0-|
|-----------------------------------|
|-----------------------------------|
|-----------------------------------|


 slower Q.=72
 6/8
  PM--------------------------------------------|
  E S S S S S S S S S S   S S S S S S S S S S S S
|---0-0-3-1-0h1p0---0---|-----0-----------4p1---0-|
|-----------------3-----|---0---0-3p0-1h3-----3---|
|-3-------------------0-|-1-----------------------|
|-----------------------|-------------------------|
|-----------------------|-------------------------|
|-----------------------|-------------------------|


  S S S S S S S S E. S   E T T  T  T  S S  S S  S S  S S
|---8-7-5---------7----|---7-7-12-12-10s8-10p8----8----8-|
|-5-------8-5-5------8s|=9---------------------10---10---|
|---------------7------|---------------------------------|
|----------------------|---------------------------------|
|----------------------|---------------------------------|
|----------------------|---------------------------------|


 5/8
            |--3--|  |--3--|  |---3---|
  E  S  S   S  S  S  S  S  S  S  S  T T
|-0----10h=13p12p10h13p12p10h13p12p10s8h=|
|-0-12-(0)-------------------------------|
|----------------------------------------|
|----------------------------------------|
|----------------------------------------|
|----------------------------------------|


 2/4                                 3/8
   |-----6------|  |------6-------|    |-3-|  |-3-|  |-3-|
   S  S S  S  S S  S  S S  S  S T T    S S S  S S S  S S S
|-12p10p8h12p10p8h12p10p8h12p10p8S7h|=10p8p7h10p8p7h10p8p7-|
|-----------------------------------|----------------------|
|-----------------------------------|----------------------|
|-----------------------------------|----------------------|
|-----------------------------------|----------------------|
|-----------------------------------|----------------------|


 5/4
  |-----6-----| |----6----| |----6----| |----6----| |----6-----|
  S. T S  S S S S S S S S S S S S S S S S S S S S S S S S  S S S
|-8--0-0-10-0-0-8-0-0-7-0-0-5-0-0-4-0-0-5-0-0-7-0-0-8-0-0-10-0-0-|
|----------------------------------------------------------------|
|----------------------------------------------------------------|
|----------------------------------------------------------------|
|----------------------------------------------------------------|
|----------------------------------------------------------------|


 4/4
   H..          a  E
|-11tr12-------11h12---|
|----------------------|
|----------------------|
|----------------------|
|----------------------|
|----------------------|


           in time Q=76
            3/4
                                                   ~~~~~~~~~~~~~~
  W           S  S  S.T S  S S  S   S  S   S  S    H.        +E  +E  Q  e  E
|----------|-12h13p12p0h8h10p8-h8------8--------|----------|------------------||
|----------|----------------------h10----h10----|----------|------------------||
|----------|-------------------h9--h9-h9--h9----|----------|------------------||
|----------|---------------------------------h7-|----------|--------------h6--||
|----------|------------------------------------|-h7-------|-(7)-(7)----------||
|----------|------------------------------------|----------|------------0-----||


  in time Q=60
 4/4
  T     T     T     T     T     T     T     T     T     T     T     T      
  |--------------6--------------|     |--------------6--------------|      
  S     S     S     S     S     S     S     S     S     S     S     S      
|-------------------5(17)-------------------------------5(17)-------------|
|-------------5(17)-------5(17)-------------------5(17)-------5(17)-------|
|-------5(17)-------------------5(17)-------5(17)-------------------5(17)-|
|-7(19)-------------------------------7(19)-------------------------------|
|-------------------------------------------------------------------------|
|-------------------------------------------------------------------------|


  T     T     T     T     T     T     T     T     T     T     T     T      
  |--------------6--------------|     |--------------6--------------|      
  S     S     S     S     S     S     S     S     S     S     S     S      
|-------------------5(17)-------------------------------5(17)-------------|
|-6(18)-------6(18)-------6(18)-------------------6(18)-------5(17)-------|
|-------5(17)-------------------5(17)-------5(17)-------------------5(17)-|
|-------------------------------------7(19)-------------------------------|
|-------------------------------------------------------------------------|
|-------------------------------------------------------------------------|

  T     T     T     T     T     T     T     T     T     T     T     
  |--------------6--------------|     |--3--|     |-----3-----|     
  S     S     S     S     S     S     S     E     S     S     S     
|-------------------------------------------------5(17)-------------|
|-------------5(17)-------5(17)-------------------------5(17)-------|
|-------5(17)-------5(17)-------5(17)-------5(17)-------------5(17)-|
|-7(19)-------------------------------7(19)-------------------------|
|-------------------------------------------------------------------|
|-------------------------------------------------------------------|

  T     T     T     T     T     T     T     T     T     T     T     T      
  |--------------6--------------|     |--------------6--------------|      
  S     S     S     S     S     S     S     S     S     S     S     S      
|-------------------5(17)-------------------------5(17)-6(18)-8(20)-------|
|-------------6(18)-------6(18)-------------6(18)-------------------------|
|-------5(17)-------------------5(17)-------------------------------------|
|-7(19)-------------------------------7(19)-------------------------5(17)-|
|-------------------------------------------------------------------------|
|-------------------------------------------------------------------------|

  T     T     T     T     T     T     T     T     T     T     T     T     
  |--------------6--------------|     |--------------6--------------|     
  S     S     S     S     S     S     S     S     S     S     S     S     
|-------------------8(20)-------------------------------------------------|
|-------------8(20)-------8(20)-------------------------8(20)-------------|
|-------7(19)-------------------7(19)-5(17)-7(19)-8(20)-------7(19)-5(17)-|
|-------------------------------------------------------------------------|
|-5(17)-------------------------------------------------------------------|
|-------------------------------------------------------------------------|

  T     T     T     T     T     T     T             
  |--------------6--------------|           |-3--|  
  S     S     S     S     S     S     E     S  S S  
|-------------------5(17)--------------------------|
|-------5(17)-5(17)-------5(17)--------------------|
|-7(19)-------------------------5(17)--------------|
|-------------------------------------7(19)--------|
|-------------------------------------------8\-0-0-|
|--------------------------------------------------|

                       2/4 bend neck
                        \0.25___/
    |3|
  E E S E E E E E E     E      +E  +E.  S
|---------------------|--------------------|
|-0-1-----0-1-0-3-0---|--------------------|
|-0-2---2-0-0-0-2-0---|--------------------|
|-0-3---3-0-2-0-0-0---|--------------------|
|---0-0-3---3-2-0-----|--------------------|
|-------1-3-------3b4-|-0------(0)-(0)-15\-|


  free time Q=172
 4/4
  PM------------------------------------------------------------------|
  |---5---|         |-3-|
  S S S S S S S S S S S S S S S S S S   S S S S S S S S S S S S S S S S
|-------------------------------------|----------------------------------|
|-3-3-1-----4-1-----1h4p1-----4-1-----|-4-4-----7-4-----6-4-----7-4------|
|-------3-1-----3-1-------3-1-----3-1-|-----6-4-----6-4-----6-4-----6-4--|
|-------------------------------------|----------------------------------|
|-------------------------------------|----------------------------------|
|-------------------------------------|----------------------------------|


   PM--------------------------------------
   S S  S S  S S  S S  S S  S S  S S  S S
|-----------------------------------------|
|-10-8------11-8------11-9------12-9------|
|------10-8------10-8------11-9------11-9-|
|-----------------------------------------|
|-----------------------------------------|
|-----------------------------------------|


 ----------------------------------------------|
   S  S  S  S  S  S  S  S  S  S  S  S  S  S  S  S
|-------------------------------------------------|
|-12-10-------13-10-------13-11-------14-11-------|
|-------12-10-------12-11-------13-11-------13-12-|
|-------------------------------------------------|
|-------------------------------------------------|
|-------------------------------------------------|


 3/4
   PM------------------------------------|
   S  S  S  S  S  S  S  S  S  S  T  T  T  T
|-------------------------------------------|
|-14-12-------15-12-------15-13-16-13-13-13-|
|-------14-12-------14-12-------------------|
|-------------------------------------------|
|-------------------------------------------|
|-------------------------------------------|


            ~~~~~             ~~~~~
   Q       +H         Q      +Q..    S     H         +E   +S  S
|-15b17===(17)r----|-15b18r=(15)--------|-15b19=====(19)r(15)---|
|------------------|--------------------|-----------------------|
|------------------|--------------------|---------------------0-|
|------------------|----------------(0)-|-----------------------|
|------------------|--------------------|-----------------------|
|------------------|--------------------|-----------------------|


  in time H.=H
 4/4
  E E E E E E E S. T   Q.   E Q.   E   E. S  E  E Q  Q
|--------------------|---------------|------------------||
|-0-1-1-0-0-3-0-2--3-|-3----0-0----3-|-3----------0-----||
|-0-2-0-0-0-2-0-2--2-|-2----0-0----2-|-2--------0-0-----||
|-0-3-2-0-0-0-0-2--0-|-0----0-0----0-|-0--0-----0-0-----||
|---3-----------0----|---------------|------12\-2-------||
|---1-----3-2-3------|------3-3------|------------3-----||


  in time Q=63
w/fingers
  E E Q  E Q  E   Q  E E E E E S S   Q  S S S S E S S E S S
|-------------0-|----0-------0-----|----0-0-----------0-----|
|-3-3-3--2-3----|-3--------3-------|-3--3-3-----2h3---3-2---|
|-0---0--0------|-2----2-2-----2---|-0--0-0-----0---0-0-0---|
|-0---0--2------|-0----0-0-----0---|-0--0-0-0---2---2-2-2---|
|--------0------|----------------0-|-2--------0-------------|
|-3---3---------|------------------|----------------------0-|


  E S S E S S E S S E S S   E E E E Q  Q
|-------------------------|---------------|
|-------3-----------3-----|---0-1-3-2-----|
|---2---2-------2---2-----|---0-0-0-------|
|-----0-----------0---0-0-|---0-----2-----|
|-------------------------|-----0-2----0--|
|-1-------1-1-2-----------|-3-------------|


   Q   e  E  +E   E  S S E    E  S  S  e  E  +E   E  S  S E
|--------------------------|---------------------------------||
|-----12-10-(10)----10-----|----------12-10-(10)----10-------||
|-----12-------------9---9-|----12----12-------------9-------||
|-----12--9--(9)h11-11p9-9-|-------12-----9--(9)h11-11-11p9--||
|-10-----------------9---9-|-10----------------------9-------||
|--------10-(10)-----------|-------------10-(10)-------------||


  slower Q.=48
 6/8
  E E e E E E   S  S   S  S  S S  Q   S S   E S S e E  E  S S
|-----7-------|------<12>--------12-------|-------7-----------|
|-----7-------|-------------10------------|-----7-------------|
|---7-----7-7-|-----------9----9----------|---7-------<7>-7---|
|-9-----9-----|-9s11-----------------11-0-|-9-------9-------0-|
|-------------|---------------------------|-------------------|
|-------------|---------------------------|-------------------|


  S  S E  E  Q  E    Q   E  Q.     E E e e e e   E E E S S E E
|-----------12----|--------------|-------------|-0---0-0--------|
|--------10-------|-12--12-10----|-8---8-6-5-3-|---0-----3-3----|
|------9----------|-12--12-(0)---|---6---------|-----------1p0--|
|-9s11----------0-|-12-----------|-------------|----------------|
|-----------------|-10------9----|-7-----5-4-2-|-------0--------|
|-----------------|--------------|-------------|-3--------------|


                                      H.=H
  E E E E E E   E E E E E E   a E E E E E E    Q.   +E  a E E
|-------0h2---|-------2-----|-----3---3p2-0-|-^0----(0)-----0--|
|-----3-------|-----0---0---|---------------|-^2----(2)-2h3----|
|---2---------|---2-------2-|-------0-------|-^0----(0)--------|
|-0---------0-|-1-----------|-1s2-----------|-^2----(2)--------|
|-------------|-------------|---------------|-^0----(0)--------|
|-------------|-------------|---------------|------------------|


  faster Q.=84
 4/4
  E E E E E E E E   E E E E Q  E E
|-2h3-2p0-2-0---0-|---0----------0-|
|-------------3---|-3---2p0-2--3---|
|-----------------|----------------|
|-0---------------|---------2------|
|---------4-------|-2--------------|
|-----------------|----------------|
  H       H         H       H


                                     2/4
  E E E E E E E E   E E E E E E E E   E  E Q
|-2h3-2p0-2-0---0-|---0-----------0-|-----------|
|-------------3---|-3---2p0-2---3---|-3---------|
|-----------------|-----------0-----|----2------|
|-0---------------|---------2-------|------0----|
|---------4-------|-2---------------|--------2--|
|-----------------|-----------------|-2---------|
  H       H         H       H         Q.     E


                                            faster Q=116       H.=H
 4/4                                                          2/4
                                              PM  PM PM  PM
  Q  Q  Q  Q     H       H        W           E E Q  E E E E   E E E E
|-3p=2--2p=0--|--------<12>----|------------|-2-3-0----------|----------||
|-------------|-<7>----<12>----|-<7>--------|--------3-5-----|----------||
|-------------|-<7>----<12>----|-<7>--------|------------2-4-|----------||
|-------------|----------------|------------|----------------|-2-4------||
|-------4-----|----------------|------------|----------------|-----2-4--||
|-0-----------|----------------|------------|-0---0--0---0---|----------||
  H     H                                     Q   Q  Q   Q


  free time Q=72                         Q=156
                                        Band In w/pick
 4/4           5/4                         4/4
                 ~~~        ~~~~~~~~~~~~
  H    +H       +Q   +Q.   +E  +Q   +Q      E E E E E E E E
|-------------|--------------------------||-----------------|
|-------------|--------------------------||-3-----3---------|
|-------------|--------------------------||-2-2---2---------|
|-------------|--------------------------||-0-2---0---2-----|
|-5----(5)----|-(5)--(5)---(5)-(5)--(5)--||---0-------2---2-|
|-------------|--------------------------||-----------0---0-|

  bend neck
  \0.5___/
  E     +E  +H     Q     E E E E E Q  S S   W          E E Q  H
|-0-----(0)-(0)--------|-----------0--0-0-|-0--------|-0-0---------|
|-0-----(0)-(0)--------|-3-----3---0--0-0-|-0--------|-0-0---------|
|-1-----(1)-(1)----x/--|-2-2---2---1--1-1-|-1--------|-1-1---------|
|-2-----(2)-(2)----x/--|-0-2---0---2--2-2-|-2--------|-2-2---------|
|-2-----(2)-(2)----x/--|---0----------2-2-|-2--------|-2-2---------|
|-0-----(0)-(0)--------|--------------0-0-|-0--------|-0-0---------|


  E Q.   E Q  S S   W          E E Q  H      E E E S S E E E E
|-----------------|-0--------|-------------|---------------------|
|--------3-3------|-0--------|-------------|-----------3-3-------|
|-4-0----2-0------|-4--------|-4-2---------|---0-------2-0-------|
|-2-0----0-0------|-2--------|-------------|-2-0---0-0-0-0---0---|
|-2---------------|-2--------|-2-0---------|-2-------------------|
|-0-3---------0-0-|-0--------|-------------|-0-3-----------------|


  PM--------------------------------------------------------------|
  E S S E S S E S S E S S   E S S E S S E S S E E   E E E E E E E E
|-------------------------|-----------------------|-----------------|
|-------------------------|-----------------------|-----------------|
|---------0-0---0-----0---|---------0-0-2-------0-|-------4---4---4-|
|-2-0-0-2-----2-0-0-2-0-0-|-2-0-0-2-----2-0-0-2---|-6-4-6---6---6---|
|-------------------------|-----------------------|-----------------|
|-------------------------|-----------------------|-----------------|


   E S S E S S  E S S  E S S    E  S  S  E  S  S  E  S  S  E  E    H    H
|---------------------10-----|-15--------------------------------|------3----|
|--------------10-----10-----|-15-------15----------------14-----|-3----3----|
|----7-7-9-7-7--9-7-7----7-7-|----12-12-12-12-12-14-12-12-14-12\-|-2----0----|
|-/9-------------------------|-------------------12-------14-----|-0----0----|
|----------------------------|-----------------------------------|-----------|
|----------------------------|-----------------------------------|-----------|


  H    H      Q  Q  Q  Q    Q  Q  Q   Q
|-----------|-------------|---------------||
|-3----3----|-3--3--3--3--|-3--3--3-------||
|-2----0----|-2--0--2--0--|-2--0--2-------||
|-0----0----|-0--0--0--0--|-0--0--0-------||
|-----------|-------------|-0--0--0-------||
|-----------|-------------|----------12\--||


 Chorus
  slightly faster Q=162
  Q  E E E E E E   E E E E +Q   E E   Q  E E E E E E   E E E E Q  Q
|----------------|------------------|----------------|----------------|
|-3----3---3---0-|---2---3-(3)--x-x-|-4----4---4---4-|----------------|
|-2----2---2---0-|---2---2-(2)--x-x-|-4----4---4---4-|---2-2---2------|
|-0----0---0---0-|---2---0-(0)--x-x-|-4----4---4---4-|---2-2---2------|
|----------------|---0--------------|-2----2---2---2-|---0-0---0------|
|--------------3-|------------------|----------------|----------------|


                                                        PM------------|
  Q  E E E E E E   E E E E +Q   E E   Q  E E E Q.       E E E E E E E E
|----------------|------------------|---------------||--------------------||
|-3----3---3---0-|---2---3-(3)--x-x-|-3----3---3----||o------------------o||
|-2----2---2---0-|---2---2-(2)--x-x-|-2----2---2----||--------------------||
|-0----0---0---0-|---2---0-(0)--x-x-|-0----0---0----||--------------------||
|----------------|---0--------------|---------------||o-2-2-2-2-2-2-2-2--o||
|--------------3-|------------------|---------------||--0-0-0-0-0-0-0-0---||


    PM------------|
    E E E E E E E E   E Q.    E   Q.
||------------------|-------------------||
||o-----------------|-3-3--------------o||
||------------------|-0-2----(0)--2-----||
||------------------|-0-0----(0)--2-----||
||o-2-2-2-2-2-2-2-2-|-------------0----o||
||--0-0-0-0-0-0-0-0-|---------3b4-------||


   Verse 3
    PM----|
    E E E E H      E Q.    E   Q.    4x
||----------3----|-------------------||
||o---------3----|-3-3--------------o||
||----------0----|-0-2----(0)--2-----||
||---------------|-0-0----(0)--2-----||
||o-2-2-2-2------|-------------0----o||
||--0-0-0-0------|---------3b4-------||


 Outro
  PM------------|                     PM--------------------|
  E E E E E E E E   E E E E E E E E   E S S E S S E S S E S S
|-----------------|-----------------|-------------------------|
|-----------------|-5-5-5-5-5-5-5h7-|-------------------------|
|-----------------|-----------------|---------0-0---------0-0-|
|-----------------|-5-5-5-5-5-5-5---|-2-0-0-2-----2-0-0-2-----|
|-0-2-2---7-7-7-7-|-----------------|-------------------------|
|-0-0-0-0-0-0-0-0-|-----------------|-------------------------|


  PM----------------------------|   PM------|
  E S S E E E S S E S S   E S S E E E S S E E    E S S E S S  E  S  S  E  S  S
|-----------------------|---------------------|--------------------------------|
|-----------------------|---------------------|-----------------------15-------|
|---------0---------0-0-|---------4---------4-|----7-7-9-7-0-14-12-12-12-12-12-|
|-2-0-0-2---2-0-0-2-----|-6-6-4-6---6-6-4-6---|-/9-----------------------12-12-|
|-----------------------|---------------------|--------------------------------|
|-----------------------|---------------------|--------------------------------|


   E  S  S  E  S  S  E  S  S  S E.   E Q.   E Q.     Q  Q  H
|-15-------------------------------|---------------|-3----------*|
|----------15----------------------|-0-3-----------|-3----------*|
|-12-12-12-12-12-12-14-12-12----0p-|-0-2----0-2----|-0----------*|
|-------------------12-------14p0--|-0-0----0-2----|-2----------*|
|----------------------------------|---0----0-0----|------------*|
|----------------------------------|-3-------------|------------*|
comments
print report bad tab
4 comments total. Showing first comments.
-1 reply
ryancoke wrote on July 16 2005, 12:00 am

wow this looks like a great tab......'cept i dont know the song. i think i might have to learn it cuz it looks good

+2 reply
TheUltimateSin wrote on December 17 2005, 07:50 pm

Randy truely was a genious.

+1 reply
Calvin Waller wrote on March 27 2008, 01:23 pm

Good Lord! This tab is long! It must have took you a long time to write it too. I played through about seven minutes of it on my guitar and it sounds nearly like the live song. For you, I give you five stars because you have the patience to tab out this whole song. Thank you.

I want to post or [tab]
guest
You may want to rate the tab now too:
select rating
Please do not post tabs as comments. Select "correction" instead!