Oops, an error
Loading. Please wait.

Maybe Misery Tab

3,806 views 1 this week
1 commentread comment
1 2 3 4 5
excellent!
x 5
Autoscroll
+/-
esc
set tempo
stop
Difficulty
novice
WARNING: You are trying to view
                                    content from Ultimate-Guitar.com
                                    in an unauthorized application,
                                    which is prohibited.

                                    Please use an official Ultimate
                                    Guitar Tabs application for iPhone,
                                    iPad or Android to access legitimate
                                    chords, guitar, bass, and drum tabs
                                    from Ultimate-Guitar.com database.

                                    Type "ultimate guitar tabs" in Apple
                                    App Store's or Android Market's
                                    search to find the application.
Quietdrive - Maybe Misery
Falling from the Ceiling - EP

This is definately my favorite song off of their EP... and its really fun to play.
Everything's in order, so just read the tab all the way through. Standard tuning.

 Key:

 / - slide up
 \ - slide down
 x - left hand mute
 . - palm-mute
 h - hammer on
 p - pull off
 ~ - let it ring
(5)- ghost note

---------------------------------------------------------------------------------
Intro/Verse

   1 + 2 + 3 + 4 +   1 + 2 + 3 + 4 +   1 + 2 + 3 + 4 +   1 + 2 + 3 + 4 +
E|-----------------|-----------------|-----------------|-----------------|
B|-----------------|-----------------|-----------------|-----------------|
G|-----------------|-----------------|-----------------|-----------------|
D|-----------------|-----------------|-----------------|-----------------|
A|-----------------|-----------------|-----------------|-----------------|
E|-----------------|-----------------|-----------------|-----------------|
 |
 |
 | 1 + 2 + 3 + 4 +   1 + 2 + 3 + 4 +   1 + 2 + 3 + 4 +   1 + 2 + 3 + 4 +
E|-----------------|-----------------|-----------------|-----------------|
B|-----------------|-----------------|-----------------|-----------------|
G|-----------------|-----------------|-----------------|-----------------|
D|-----------------|---5---5---5---5-|-----------------|-----------------|
A|---3-3-3-3-3-3-3-|---3---3---3---3-|---7-7-7-7-7-7-7-|---5---5---2---2-|
E|---1-1-1-1-1-1-1-|-----------------|---5-5-5-5-5-5-5-|---3---3---0---0-|
     . . . . . . .     .   .   .   .     . . . . . . .     .   .   .   .



   1 + 2 + 3 + 4 +   1 + 2 + 3 + 4 +   1 + 2 + 3 + 4 +   1 + 2 + 3 + 4 +
E|-----------------|-----------------|-----------------|-----------------|
B|-----------------|-----------------|-----------------|-----------------|
G|-----------------|-----------------|-----------------|-----------------|
D|-----------------|-----------------|-----------------|-----------------|
A|-----------------|-----------------|-----------------|-----------------|
E|-----------------|-----------------|-----------------|-----------------|
 |
 |
 | 1 + 2 + 3 + 4 +   1 + 2 + 3 + 4 +   1 + 2 + 3 + 4 +   1 + 2 + 3 + 4 +
E|-----------------|-----------------|-----------------|-----------------|
B|-----------------|-----------------|-----------------|-----------------|
G|-----------------|-----------------|-----------------|-----------------|
D|-----------------|---5---5---5---5-|-----------------|-----------------|
A|---3-3-3-3-3-3-3-|---3---3---3---3-|---7-7-7-7-7-7-7-|---5---5---2---2-|
E|---1-1-1-1-1-1-1-|-----------------|---5-5-5-5-5-5-5-|---3---3---0---0-|
     . . . . . . .     .   .   .   .     . . . . . . .     .   .   .   .



   1 + 2 + 3 + 4 +   1 + 2 + 3 + 4 +   1 + 2 + 3 + 4 +   1 + 2 + 3 + 4 +
E|-----------------|-----------------|-----------------|-----------------|
B|-----------------|-----------------|-----------------|-----------------|
G|-----5---7-5---5-|-----------------|-----5---7-5---5-|-----------------|
D|---5---5-----5---|---5---5---3-2---|---5---5-----5---|---5---5---3-2---|
A|-----------------|---------------3-|-----------------|---------------3-|
E|-----------------|-----------------|-----------------|-----------------|
 |   . . . . . . .     .   .   . . .     . . . . . . .     .   .   . . .
 |
 | 1 + 2 + 3 + 4 +   1 + 2 + 3 + 4 +   1 + 2 + 3 + 4 +   1 + 2 + 3 + 4 +
E|-----------------|-----------------|-----------------|-----------------|
B|-----------------|-----------------|-----------------|-----------------|
G|-----------------|-----------------|-----------------|-----------------|
D|-----------------|---5---5---5---5-|-----------------|-----------------|
A|---3-3-3-3-3-3-3-|---3---3---3---3-|---7-7-7-7-7-7-7-|---5---5---2---2-|
E|---1-1-1-1-1-1-1-|-----------------|---5-5-5-5-5-5-5-|---3---3---0---0-|
     . . . . . . .     .   .   .   .     . . . . . . .     .   .   .   .



   1 + 2 + 3 + 4 +   1 + 2 + 3 + 4 +   1 + 2 + 3 + 4 +   1 + 2 + 3 + 4 +
E|-----------------|-----------------|-----------------|-----------------|
B|-----------------|-----------------|-----------------|-----------------|
G|-----5---7-5---5-|-----------------|-----5---7-5---5-|---7-7-7-7-7-7-7-|
D|---5---5-----5---|---5---5---3-2---|---5---5-----5---|-----------------|
A|-----------------|---------------3-|-----------------|-----------------|
E|-----------------|-----------------|-----------------|-----------------|
 |   . . . . . . .     .   .   . . . 
 |
 | 1 + 2 + 3 + 4 +   1 + 2 + 3 + 4 +   1 + 2 + 3 + 4 +   1 + 2 + 3 + 4 +
E|-----------------|-----------------|-----------------|-----------------|
B|-----------------|-----------------|-----------------|-----------------|
G|-----------------|-----------------|-----------------|-----------------|
D|-----------------|---5---5---5---5-|-----------------|-----------2---2-|
A|---3-3-3-3-3-3-3-|---3---3---3---3-|---7-7-7-7-7-7-7-|---5---5---2---2-|
E|---1-1-1-1-1-1-1-|-----------------|---5-5-5-5-5-5-5-|---3---3---0---0-|
     . . . . . . .     .   .   .   .     . . . . . . .     .   .



   1 + 2 + 3 + 4 +   1 + 2 + 3 + 4 +   1 + 2 + 3 + 4 +   1 + 2 + 3 + 4 +
E|-----------------|-----------------|-----------------|-----------------|
B|-----------------|-----------------|-----------------|-----------------|
G|---------5-5-5-5-|---------5-5-5-5-|---------5-5-5-5-|12121212-9-9-9-9-|
D|---------x-x-x-x-|---------x-x-x-x-|---------x-x-x-x-|-x-x-x-x-x-x-x-x-|
A|---------3-3-3-3-|---------3-3-3-3-|---------3-3-3-3-|10101010-7-7-7-7-|
E|-----------------|-----------------|-----------------|-----------------|
 |
 |
 | 1 + 2 + 3 + 4 +   1 + 2 + 3 + 4 +   1 + 2 + 3 + 4 +   1 + 2 + 3 + 4 +
E|-----------------|-----------------|-----------------|-----------------|
B|-----------------|-----------------|-----------------|-----------------|
G|-----------------|---5-5-----------|-----------------|-----------------|
D|-3---3-----------|---5-5-----------|-7---7-----------|---5-5-5-5-7-5-2-|
A|-3---3-----------|---3-3-----------|-7---7-----------|---5-5-5-5-7-5-2-|
E|-1---1-----------|-----------------|-5---5-----------|---3-3-3-3-5-3-0-|



   1 + 2 + 3 + 4 +   1 + 2 + 3 + 4 +   1 + 2 + 3 + 4 +   1 + 2 + 3 + 4 +
E|-----------------|-----------------|-----------------|-----------------|
B|-----------------|-----------------|-----------------|-----------------|
G|---------5-5-5-5-|---------5-5-5-5-|-5-5-5-5-5-5-5-5-|12121212-9-9-9-9-|
D|---------x-x-x-x-|---------x-x-x-x-|-x-x-x-x-x-x-x-x-|-x-x-x-x-x-x-x-x-|
A|---------3-3-3-3-|---------3-3-3-3-|-3-3-3-3-3-3-3-3-|10101010-7-7-7-7-|
E|-----------------|-----------------|-----------------|-----------------|
 |
 |
 | 1 + 2 + 3 + 4 +   1 + 2 + 3 + 4 +   1 + 2 + 3 + 4 +   1 + 2 + 3 + 4 +
E|-----------------|-----------------|-----------------|-----------------|
B|-----------------|-----------------|-----------------|-----------------|
G|-----------------|---5-5---5-5---5-|-----------------|-----------------|
D|-3---3-----------|---5-5---5-5---5-|-7-7-7-7-7-7-7-7-|-7-5-5-5-5-7-5-2-|
A|-3---3-----------|---3-3---3-3---3-|-7-7-7-7-7-7-7-7-|-7-5-5-5-5-7-5-2-|
E|-1---1-----------|-----------------|-5-5-5-5-5-5-5-5-|-5-3-3-3-3-5-3-0-|


Chorus

   1 + 2 + 3 + 4 +   1 + 2 + 3 + 4 +   1 + 2 + 3 + 4 +   1 + 2 + 3 + 4 +
E|-----------------|-----------------|-----------------|-----------------|
B|-----------------|-----------------|-----------------|-----------------|
G|---5-5-510-9---9-|---5-5-510-9---9-|---5-5-510-9---9-|---7-7-7-7-9-7-5-|
D|---x-x-x-x-x---x-|---x-x-x-x-x---x-|---x-x-x-x-x---x-|---x-x-x-x-x-x-x-|
A|---3-3-3-8-7---7-|---3-3-3-9-7---7-|---3-3-3-8-7---7-|---5-5-5-5-7-5-3-|
E|-----------------|-----------------|-----------------|-----------------|
 |
 |
 | 1 + 2 + 3 + 4 +   1 + 2 + 3 + 4 +   1 + 2 + 3 + 4 +   1 + 2 + 3 + 4 +
E|-----------------|-----------------|-----------------|-----------------|
B|-----------------|-----------------|-----------------|-----------------|
G|-----------------|---5-5-5-5-5---5-|-----------------|-----------------|
D|---3-3-3-3-3---3-|---5-5-5-5-5---5-|---7-7-7-7-7---7-|---5-5-5-5-2---2-|
A|---3-3-3-3-3---3-|---3-3-3-3-3---3-|---7-7-7-7-7---7-|---5-5-5-5-2---2-|
E|---1-1-1-1-1---1-|-----------------|---5-5-5-5-5---5-|---3-3-3-3-0---0-|



   1 + 2 + 3 + 4 +   1 + 2 + 3 + 4 +   1 + 2 + 3 + 4 +   1 + 2 + 3 + 4 +
E|-----------------|-----------------|-----------------|-----------------|
B|-----------------|-----------------|-----------------|-----------------|
G|---5-5-510-9---9-|---5-5-510-9---9-|---5-5-510-9---9-|---7-7-7-7-9-7-5-|
D|---x-x-x-x-x---x-|---x-x-x-x-x---x-|---x-x-x-x-x---x-|---x-x-x-x-x-x-x-|
A|---3-3-3-8-7---7-|---3-3-3-9-7---7-|---3-3-3-8-7---7-|---5-5-5-5-7-5-3-|
E|-----------------|-----------------|-----------------|-----------------|
 |
 |
 | 1 + 2 + 3 + 4 +   1 + 2 + 3 + 4 +   1 + 2 + 3 + 4 +   1 + 2 + 3 + 4 +
E|-----------------|-----------------|-----------------|-----------------|
B|-----------------|-----------------|-----------------|-----------------|
G|-----------------|---5-5-5-5-5---5-|-----------------|-----------------|
D|---3-3-3-3-3---3-|---5-5-5-5-5---5-|---7-7-7-7-7---7-|---5-5-5-5-2---2-|
A|---3-3-3-3-3---3-|---3-3-3-3-3---3-|---7-7-7-7-7---7-|---5-5-5-5-2---2-|
E|---1-1-1-1-1---1-|-----------------|---5-5-5-5-5---5-|---3-3-3-3-0---0-|



   1 + 2 + 3 + 4 +   1 + 2 + 3 + 4 +   1 + 2 + 3 + 4 +   1 + 2 + 3 + 4 +
E|-----------------|-----------------|-----------------|-----------------|
B|-----------------|-----------------|-----------------|-----------------|
G|---5-5-510-9---9-|---5-5-510-9---9-|---5-5-510-9---9-|---7-7-7-7-9-7-5-|
D|---x-x-x-x-x---x-|---x-x-x-x-x---x-|---x-x-x-x-x---x-|---x-x-x-x-x-x-x-|
A|---3-3-3-8-7---7-|---3-3-3-9-7---7-|---3-3-3-8-7---7-|---5-5-5-5-7-5-3-|
E|-----------------|-----------------|-----------------|-----------------|
 |
 |
 | 1 + 2 + 3 + 4 +   1 + 2 + 3 + 4 +   1 + 2 + 3 + 4 +   1 + 2 + 3 + 4 +
E|-----------------|-----------------|-----------------|-----------------|
B|-----------------|-----------------|-----------------|-----------------|
G|-----------------|---5-5-5-5-5---5-|-----------------|-----------------|
D|---3-3-3-3-3---3-|---5-5-5-5-5---5-|---7-7-7-7-7---7-|---5-5-5-5-2---2-|
A|---3-3-3-3-3---3-|---3-3-3-3-3---3-|---7-7-7-7-7---7-|---5-5-5-5-2---2-|
E|---1-1-1-1-1---1-|-----------------|---5-5-5-5-5---5-|---3-3-3-3-0---0-|



   1 + 2 + 3 + 4 +   1 + 2 + 3 + 4 +   1 + 2 + 3 + 4 +   1 + 2 + 3 + 4 +
E|-----------------|-----------------|-----------------|--------12-------|
B|-----------------|-----------------|-----------------|----13----13--13-|
G|---5-5-510-9---9-|---5-5-510-9---9-|---5-5-510-9---7-|--12--12----12---|
D|---x-x-x-x-x---x-|---x-x-x-x-x---x-|---x-x-x-x-x---x-|-----------------|
A|---3-3-3-8-7---7-|---3-3-3-9-7---7-|---3-3-3-8-7---5-|-----------------|
E|-----------------|-----------------|-----------------|-----------------|
 |
 |
 | 1 + 2 + 3 + 4 +   1 + 2 + 3 + 4 +   1 + 2 + 3 + 4 +   1 + 2 + 3 + 4 +
E|-----------------|-----------------|-----------------|-----------------|
B|-----------------|-----------------|-----------------|-----------------|
G|-----------------|---5-5-5-5-5---5-|-----------------|-----------------|
D|---3-3-3-3-3---3-|---5-5-5-5-5---5-|---7-7-7-7-7---5-|-----------------|
A|---3-3-3-3-3---3-|---3-3-3-3-3---3-|---7-7-7-7-7---5-|-----------------|
E|---1-1-1-1-1---1-|-----------------|---5-5-5-5-5---3-|-----------------|


Post-Chorus

   1 + 2 + 3 + 4 +   1 + 2 + 3 + 4 +   1 + 2 + 3 + 4 +   1 + 2 + 3 + 4 +
E|--------12-------|--------12-------|--------12----13-|-----------------|
B|----13----13--12-|----13----13--12-|----13----13-----|-----------------|
G|--12--13----12---|--12--12----12---|--12--12----12---|-----------------|
D|-----------------|-----------------|-----------------|-----------------|
A|-----------------|-----------------|-----------------|-----------------|
E|-----------------|-----------------|-----------------|-----------------|
 |
 |
 | 1 + 2 + 3 + 4 +   1 + 2 + 3 + 4 +   1 + 2 + 3 + 4 +   1 + 2 + 3 + 4 +
E|-----------------|-----------------|-----------------|-----------------|
B|-----------------|-----------------|--------10\8\5-8-|-----------------|
G|-7-7-7-7-7-7-7-7-|-7-7-7-7-7-7-7-7-|-7-7-7-7---------|-----------------|
D|-----------------|-----------------|-----------------|-----------------|
A|-----------------|-----------------|-----------------|-----------2---2-|
E|-----------------|-----------------|-----------------|-----------0---0-|
                                                                   .   .

Verse

   1 + 2 + 3 + 4 +   1 + 2 + 3 + 4 +   1 + 2 + 3 + 4 +   1 + 2 + 3 + 4 +
E|-----------------|-----------------|-----------------|-----------------|
B|-----------------|-----------------|-----------------|-----------------|
G|---5-5-5-7-7-7-7-|10101010-9-9-9-9-|-5-5-5-5-7-7-7-7-|-9-9-9-910-7-7-7-|
D|-----------------|-----------------|-----------------|-----------------|
A|-----------------|-----------------|-----------------|-----------------|
E|-----------------|-----------------|-----------------|-----------------|
 |   . . . . . . .   . . . . . . . .   . . . . . . . .   . . . . . . . . 
 |
 | 1 + 2 + 3 + 4 +   1 + 2 + 3 + 4 +   1 + 2 + 3 + 4 +   1 + 2 + 3 + 4 +
E|-----------------|-----------------|-----------------|-----------------|
B|-----------------|-----------------|-----------------|-----------------|
G|---5-5-5-7-7-7-7-|10101010-9-9-9-9-|-5-5-5-5-7-7-7-7-|-9-9-9-910-7-7-7-|
D|-----------------|-----------------|-----------------|-----------------|
A|-----------------|-----------------|-----------------|-----------------|
E|-----------------|-----------------|-----------------|-----------------|
     . . . . . . .   . . . . . . . .   . . . . . . . .   . . . . . . . . 



   1 + 2 + 3 + 4 +   1 + 2 + 3 + 4 +   1 + 2 + 3 + 4 +   1 + 2 + 3 + 4 +
E|-----------------|-----------------|-----------------|-----------------|
B|-----------------|-----------------|-----------------|-----------------|
G|-5-5-5-7-7-7-7-7-|101010-9-9-9-9-9-|-5-5-5-7-7-7-7-7-|-9-9-910---------|
D|-----------------|-----------------|-----------------|-----------2---2-|
A|-----------------|-----------------|-----------------|-----------2---2-|
E|-----------------|-----------------|-----------------|-----------0---0-|
 | . . . . . . . .   . . . . . . . .   . . . . . . . .   . . . .
 |
 | 1 + 2 + 3 + 4 +   1 + 2 + 3 + 4 +   1 + 2 + 3 + 4 +   1 + 2 + 3 + 4 +
E|-----------------|-----------------|-----------------|-----------------|
B|-----------------|-----------------|-----------------|-----------------|
G|-5-5-5-7-7-7-7-7-|101010-9-9-9-9-9-|-5-5-5-7-7-7-7-7-|-9-9-910---------|
D|-----------------|-----------------|-----------------|-----------2---2-|
A|-----------------|-----------------|-----------------|-----------2---2-|
E|-----------------|-----------------|-----------------|-----------0---0-|
   . . . . . . . .   . . . . . . . .   . . . . . . . .   . . . .



   1 + 2 + 3 + 4 +   1 + 2 + 3 + 4 +   1 + 2 + 3 + 4 +   1 + 2 + 3 + 4 +
E|-----------------|-----------------|-----------------|-----------------|
B|-----------------|-----------------|-----------------|-----------------|
G|---------5-5-5-5-|---------5-5-5-5-|---------5-5-5-5-|12121212-9-9-9-9-|
D|---------x-x-x-x-|---------x-x-x-x-|---------x-x-x-x-|-x-x-x-x-x-x-x-x-|
A|---------3-3-3-3-|---------3-3-3-3-|---------3-3-3-3-|10101010-7-7-7-7-|
E|-----------------|-----------------|-----------------|-----------------|
 |
 |
 | 1 + 2 + 3 + 4 +   1 + 2 + 3 + 4 +   1 + 2 + 3 + 4 +   1 + 2 + 3 + 4 +
E|-----------------|-----------------|-----------------|-----------------|
B|-----------------|-----------------|-----------------|-----------------|
G|-----------------|---5-5-----------|-----------------|-----------------|
D|-3---3-----------|---5-5-----------|-7---7-----------|---5-5-5-5-7-5-2-|
A|-3---3-----------|---3-3-----------|-7---7-----------|---5-5-5-5-7-5-2-|
E|-1---1-----------|-----------------|-5---5-----------|---3-3-3-3-5-3-0-|



   1 + 2 + 3 + 4 +   1 + 2 + 3 + 4 +   1 + 2 + 3 + 4 +   1 + 2 + 3 + 4 +
E|-----------------|-----------------|-----------------|-----------------|
B|-----------------|-----------------|-----------------|-----------------|
G|---------5-5-5-5-|---------5-5-5-5-|-5-5-5-5-5-5-5-5-|12121212-9-9-9-9-|
D|---------x-x-x-x-|---------x-x-x-x-|-x-x-x-x-x-x-x-x-|-x-x-x-x-x-x-x-x-|
A|---------3-3-3-3-|---------3-3-3-3-|-3-3-3-3-3-3-3-3-|10101010-7-7-7-7-|
E|-----------------|-----------------|-----------------|-----------------|
 |
 |
 | 1 + 2 + 3 + 4 +   1 + 2 + 3 + 4 +   1 + 2 + 3 + 4 +   1 + 2 + 3 + 4 +
E|-----------------|-----------------|-----------------|-----------------|
B|-----------------|-----------------|-----------------|-----------------|
G|-----------------|---5-5---5-5---5-|-----------------|-----------------|
D|-3---3-----------|---5-5---5-5---5-|-7-7-7-7-7-7-7-7-|-7-5-5-5-5-7-5-2-|
A|-3---3-----------|---3-3---3-3---3-|-7-7-7-7-7-7-7-7-|-7-5-5-5-5-7-5-2-|
E|-1---1-----------|-----------------|-5-5-5-5-5-5-5-5-|-5-3-3-3-3-5-3-0-|


Chorus

   1 + 2 + 3 + 4 +   1 + 2 + 3 + 4 +   1 + 2 + 3 + 4 +   1 + 2 + 3 + 4 +
E|-----------------|-----------------|-----------------|-----------------|
B|-----------------|-----------------|-----------------|-----------------|
G|---5-5-510-9---9-|---5-5-510-9---9-|---5-5-510-9---9-|---7-7-7-7-9-7-5-|
D|---x-x-x-x-x---x-|---x-x-x-x-x---x-|---x-x-x-x-x---x-|---x-x-x-x-x-x-x-|
A|---3-3-3-8-7---7-|---3-3-3-9-7---7-|---3-3-3-8-7---7-|---5-5-5-5-7-5-3-|
E|-----------------|-----------------|-----------------|-----------------|
 |
 |
 | 1 + 2 + 3 + 4 +   1 + 2 + 3 + 4 +   1 + 2 + 3 + 4 +   1 + 2 + 3 + 4 +
E|-----------------|-----------------|-----------------|-----------------|
B|-----------------|-----------------|-----------------|-----------------|
G|-----------------|---5-5-5-5-5---5-|-----------------|-----------------|
D|---3-3-3-3-3---3-|---5-5-5-5-5---5-|---7-7-7-7-7---7-|---5-5-5-5-2---2-|
A|---3-3-3-3-3---3-|---3-3-3-3-3---3-|---7-7-7-7-7---7-|---5-5-5-5-2---2-|
E|---1-1-1-1-1---1-|-----------------|---5-5-5-5-5---5-|---3-3-3-3-0---0-|



   1 + 2 + 3 + 4 +   1 + 2 + 3 + 4 +   1 + 2 + 3 + 4 +   1 + 2 + 3 + 4 +
E|-----------------|-----------------|-----------------|-----------------|
B|-----------------|-----------------|-----------------|-----------------|
G|---5-5-510-9---9-|---5-5-510-9---9-|---5-5-510-9---9-|---7-7-7-7-9-7-5-|
D|---x-x-x-x-x---x-|---x-x-x-x-x---x-|---x-x-x-x-x---x-|---x-x-x-x-x-x-x-|
A|---3-3-3-8-7---7-|---3-3-3-9-7---7-|---3-3-3-8-7---7-|---5-5-5-5-7-5-3-|
E|-----------------|-----------------|-----------------|-----------------|
 |
 |
 | 1 + 2 + 3 + 4 +   1 + 2 + 3 + 4 +   1 + 2 + 3 + 4 +   1 + 2 + 3 + 4 +
E|-----------------|-----------------|-----------------|-----------------|
B|-----------------|-----------------|-----------------|-----------------|
G|-----------------|---5-5-5-5-5---5-|-----------------|-----------------|
D|---3-3-3-3-3---3-|---5-5-5-5-5---5-|---7-7-7-7-7---7-|---5-5-5-5-2---2-|
A|---3-3-3-3-3---3-|---3-3-3-3-3---3-|---7-7-7-7-7---7-|---5-5-5-5-2---2-|
E|---1-1-1-1-1---1-|-----------------|---5-5-5-5-5---5-|---3-3-3-3-0---0-|



   1 + 2 + 3 + 4 +   1 + 2 + 3 + 4 +   1 + 2 + 3 + 4 +   1 + 2 + 3 + 4 +
E|-----------------|-----------------|-----------------|-----------------|
B|-----------------|-----------------|-----------------|-----------------|
G|---5-5-510-9---9-|---5-5-510-9---9-|---5-5-510-9---9-|---7-7-7-7-9-7-5-|
D|---x-x-x-x-x---x-|---x-x-x-x-x---x-|---x-x-x-x-x---x-|---x-x-x-x-x-x-x-|
A|---3-3-3-8-7---7-|---3-3-3-9-7---7-|---3-3-3-8-7---7-|---5-5-5-5-7-5-3-|
E|-----------------|-----------------|-----------------|-----------------|
 |
 |
 | 1 + 2 + 3 + 4 +   1 + 2 + 3 + 4 +   1 + 2 + 3 + 4 +   1 + 2 + 3 + 4 +
E|-----------------|-----------------|-----------------|-----------------|
B|-----------------|-----------------|-----------------|-----------------|
G|-----------------|---5-5-5-5-5---5-|-----------------|-----------------|
D|---3-3-3-3-3---3-|---5-5-5-5-5---5-|---7-7-7-7-7---7-|---5-5-5-5-2---2-|
A|---3-3-3-3-3---3-|---3-3-3-3-3---3-|---7-7-7-7-7---7-|---5-5-5-5-2---2-|
E|---1-1-1-1-1---1-|-----------------|---5-5-5-5-5---5-|---3-3-3-3-0---0-|



   1 + 2 + 3 + 4 +   1 + 2 + 3 + 4 +   1 + 2 + 3 + 4 +   1 + 2 + 3 + 4 +
E|-----------------|-----------------|-----------------|-----------------|
B|-----------------|-----------------|-----------------|-----------------|
G|---5-5-510-9---9-|---5-5-510-9---9-|---5-5-510-9---9-|---7-7-7-7-9-7-5-|
D|---x-x-x-x-x---x-|---x-x-x-x-x---x-|---x-x-x-x-x---x-|---x-x-x-x-x-x-x-|
A|---3-3-3-8-7---7-|---3-3-3-9-7---7-|---3-3-3-8-7---7-|---5-5-5-5-7-5-3-|
E|-----------------|-----------------|-----------------|-----------------|
 |
 |
 | 1 + 2 + 3 + 4 +   1 + 2 + 3 + 4 +   1 + 2 + 3 + 4 +   1 + 2 + 3 + 4 +
E|-----------------|-----------------|-----------------|-----------------|
B|-----------------|-----------------|-----------------|-----------------|
G|-----------------|---5-5-5-5-5---5-|-----------------|-----------------|
D|---3-3-3-3-3---3-|---5-5-5-5-5---5-|---7-7-7-7-7---7-|-9-9-9-9-9-9-9-9-|
A|---3-3-3-3-3---3-|---3-3-3-3-3---3-|---7-7-7-7-7---7-|-9-9-9-9-9-9-9-9-|
E|---1-1-1-1-1---1-|-----------------|---5-5-5-5-5---5-|-7-7-7-7-7-7-7-7-|


Solo

   1 + 2 + 3 + 4 +   1 + 2 + 3 + 4 +   1 + 2 + 3 + 4 +   1 + 2 + 3 + 4 +
E|-----------------|-----------------|-----------------|-----------------|
B|-----------------|-----------------|-----------------|-----------------|
G|1919191717171919-|1917171719211917-|1919191717171919-|1917171719211917-|
D|-x-x-x-x-x-x-x-x-|-x-x-x-x-x-x-x-x-|-x-x-x-x-x-x-x-x-|-x-x-x-x-x-x-x-x-|
A|1717171515151717-|1715151517191715-|1717171515151717-|1715151517191715-|
E|-----------------|-----------------|-----------------|-----------------|
 |
 |
 | 1 + 2 + 3 + 4 +   1 + 2 + 3 + 4 +   1 + 2 + 3 + 4 +   1 + 2 + 3 + 4 +
E|-----------------|-----------------|-----------------|-----------------|
B|-----------------|-----------------|-----------------|-----------------|
G|-5-5-5-5-5-5-5-5-|-5-5-5-5-5-5-5-5-|-----------------|-----------------|
D|-5-5-5-5-5-5-5-5-|-5-5-5-5-5-5-5-5-|-5-5-5-5-5-5-5-5-|-5-5-5-5-5-5-5-5-|
A|-3-3-3-3-3-3-3-3-|-3-3-3-3-3-3-3-3-|-5-5-5-5-5-5-5-5-|-5-5-5-5-5-5-5-5-|
E|-----------------|-----------------|-3-3-3-3-3-3-3-3-|-3-3-3-3-3-3-3-3-|



   1 + 2 + 3 + 4 +   1 + 2 + 3 + 4 +   1 + 2 + 3 + 4 +   1 + 2 + 3 + 4 +
E|-----------------|-----------------|-----------------|-----------------|
B|-----------------|-----------------|-----------------|-----------------|
G|141414-9-9-91414-|14-9-9-91414-9-9-|1010101717171212-|1219191719211917-|
D|-x-x-x-x-x-x-x-x-|-x-x-x-x-x-x-x-x-|-x-x-x-x-x-x-x-x-|-x-x-x-x-x-x-x-x-|
A|121212-7-7-71212-|12-7-7-71212-7-7-|-8-8-81515151010-|1017171517191715-|
E|-----------------|-----------------|-----------------|-----------------|
 |
 |
 | 1 + 2 + 3 + 4 +   1 + 2 + 3 + 4 +   1 + 2 + 3 + 4 +   1 + 2 + 3 + 4 +
E|-----------------|-----------------|-----------------|-----------------|
B|-----------------|-----------------|-----------------|-----------------|
G|-----------------|-----------------|-----------------|-----------------|
D|-7-7-7-7-7-7-7-7-|-7-7-7-7-7-7-7-7-|-3-3-3-3-3-3-3-3-|-5-5-5-5-5-5-5-5-|
A|-7-7-7-7-7-7-7-7-|-7-7-7-7-7-7-7-7-|-3-3-3-3-3-3-3-3-|-5-5-5-5-5-5-5-5-|
E|-5-5-5-5-5-5-5-5-|-5-5-5-5-5-5-5-5-|-1-1-1-1-1-1-1-1-|-3-3-3-3-3-3-3-3-|



   1 + 2 + 3 + 4 +   1 + 2 + 3 + 4 +   1 + 2 + 3 + 4 +   1 + 2 + 3 + 4 +
E|-----------------|-----------------|-----------------|-----------------|
B|-----------------|-----------------|-----------------|-----------------|
G|101010-9-9-91717-|17-9-9-91010-9-9-|101010-9-9-91717-|1717171717171717-|
D|-x-x-x-x-x-x-x-x-|-x-x-x-x-x-x-x-x-|-x-x-x-x-x-x-x-x-|-x-x-x-x-x-x-x-x-|
A|-8-8-8-7-7-71515-|15-7-7-7-8-8-7-7-|-8-8-8-7-7-71515-|1515151515151515-|
E|-----------------|-----------------|-----------------|-----------------|
 |
 |
 | 1 + 2 + 3 + 4 +   1 + 2 + 3 + 4 +   1 + 2 + 3 + 4 +   1 + 2 + 3 + 4 +
E|-----------------|-----------------|-----------------|-----------------|
B|-----------------|-----------------|-----------------|-----------------|
G|-5-5-5-5-5-5-5-5-|-5-5-5-5-5-5-5-5-|-----------------|-----------------|
D|-5-5-5-5-5-5-5-5-|-5-5-5-5-5-5-5-5-|-5-5-5-5-5-5-5-5-|-5-5-5-5-5-5-5-5-|
A|-3-3-3-3-3-3-3-3-|-3-3-3-3-3-3-3-3-|-5-5-5-5-5-5-5-5-|-5-5-5-5-5-5-5-5-|
E|-----------------|-----------------|-3-3-3-3-3-3-3-3-|-3-3-3-3-3-3-3-3-|



   1 + 2 + 3 + 4 +   1 + 2 + 3 + 4 +   1 + 2 + 3 + 4 +   1 + 2 + 3 + 4 +
E|-----------------|-----------------|-----------------|-----------------|
B|-----------------|-----------------|-----------------|-----------------|
G|-7-7-9-91010-9-9-|1010121212121212-|141412121010-9-9-|1010-9-9-7-7-7-7-|
D|-x-x-x-x-x-x-x-x-|-x-x-x-x-x-x-x-x-|-x-x-x-x-x-x-x-x-|-x-x-x-x-x-x-x-x-|
A|-5-5-7-7-8-8-7-7-|-8-8101010101010-|12121010-8-8-7-7-|-8-8-7-7-5-5-5-5-|
E|-----------------|-----------------|-----------------|-----------------|
 |
 |
 | 1 + 2 + 3 + 4 +   1 + 2 + 3 + 4 +   1 + 2 + 3 + 4 +   1 + 2 + 3 + 4 +
E|-----------------|-----------------|-----------------|-----------------|
B|-----------------|-----------------|-----------------|-----------------|
G|-----------------|-----------------|-----------------|-----------------|
D|-7-7-7-7-7-7-7-7-|-7-7-7-7-7-7-7-7-|-3-3-3-3-3-3-3-3-|-5-5-5-5-5-5-5-5-|
A|-7-7-7-7-7-7-7-7-|-7-7-7-7-7-7-7-7-|-3-3-3-3-3-3-3-3-|-5-5-5-5-5-5-5-5-|
E|-5-5-5-5-5-5-5-5-|-5-5-5-5-5-5-5-5-|-1-1-1-1-1-1-1-1-|-3-3-3-3-3-3-3-3-|


Chorus (Variation)

   1 + 2 + 3 + 4 +   1 + 2 + 3 + 4 +   1 + 2 + 3 + 4 +   1 + 2 + 3 + 4 +
E|-----------------|-----------------|-----------------|-----------------|
B|-----------------|-----------------|-----------------|-----------------|
G|-----------------|-----------------|-----------------|-----------------|
D|-----------------|-----------------|-----------------|-----------------|
A|-----------------|-----------------|-----------------|-----------------|
E|-----------------|-----------------|-----------------|-----------------|
 |
 |
 | 1 + 2 + 3 + 4 +   1 + 2 + 3 + 4 +   1 + 2 + 3 + 4 +   1 + 2 + 3 + 4 +
E|-----------------|-----------------|-----------------|-----------------|
B|-----------------|-----------------|-----------------|-----------------|
G|-----------------|---5-5-5-5-5---5-|-----------------|-----------------|
D|---3-3-3-3-3---3-|---5-5-5-5-5---5-|---7-7-7-7-7---7-|---5-5-5-5-2---2-|
A|---3-3-3-3-3---3-|---3-3-3-3-3---3-|---7-7-7-7-7---7-|---5-5-5-5-2---2-|
E|---1-1-1-1-1---1-|-----------------|---5-5-5-5-5---5-|---3-3-3-3-0---0-|



   1 + 2 + 3 + 4 +   1 + 2 + 3 + 4 +   1 + 2 + 3 + 4 +   1 + 2 + 3 + 4 +
E|-----------------|-----------------|-----------------|-----------------|
B|-----------------|-----------------|-----------------|-----------------|
G|-----------------|-----------------|-----------------|-----------------|
D|-----------------|-----------------|-----------------|-----------------|
A|-----------------|-----------------|-----------------|-----------------|
E|-----------------|-----------------|-----------------|-----------------|
 |
 |
 | 1 + 2 + 3 + 4 +   1 + 2 + 3 + 4 +   1 + 2 + 3 + 4 +   1 + 2 + 3 + 4 +
E|-----------------|-----------------|-----------------|-----------------|
B|-----------------|-----------------|-----------------|-----------------|
G|-----------------|---5-5-5-5-5---5-|-----------------|-----------------|
D|---3-3-3-3-3---3-|---5-5-5-5-5---5-|---7-7-7-7-7---7-|---x-x-x-x-x-x-x-|
A|---3-3-3-3-3---3-|---3-3-3-3-3---3-|---7-7-7-7-7---7-|---x-x-x-x-x-x-x-|
E|---1-1-1-1-1---1-|-----------------|---5-5-5-5-5---5-|---x-x-x-x-x-x-x-|



   1 + 2 + 3 + 4 +   1 + 2 + 3 + 4 +   1 + 2 + 3 + 4 +   1 + 2 + 3 + 4 +
E|-----------------|-----------------|-----------------|-----------------|
B|-----------------|-----------------|-----------------|-----------------|
G|-----------------|---5-5-5-5-5---5-|-----------------|-----------------|
D|---3-3-3-3-3---3-|---5-5-5-5-5---5-|---7-7-7-7-7---7-|---5-5-5-5-2---2-|
A|---3-3-3-3-3---3-|---3-3-3-3-3---3-|---7-7-7-7-7---7-|---5-5-5-5-2---2-|
E|---1-1-1-1-1---1-|-----------------|---5-5-5-5-5---5-|---3-3-3-3-0---0-|
 |
 |
 | 1 + 2 + 3 + 4 +   1 + 2 + 3 + 4 +   1 + 2 + 3 + 4 +   1 + 2 + 3 + 4 +
E|-----------------|-----------------|-----------------|-----------------|
B|-----------------|-----------------|-----------------|-----------------|
G|-----------------|---5-5-5-5-5---5-|-----------------|-----------------|
D|---3-3-3-3-3---3-|---5-5-5-5-5---5-|---7-7-7-7-7---7-|---5-5-5-5-2---2-|
A|---3-3-3-3-3---3-|---3-3-3-3-3---3-|---7-7-7-7-7---7-|---5-5-5-5-2---2-|
E|---1-1-1-1-1---1-|-----------------|---5-5-5-5-5---5-|---3-3-3-3-0---0-|



   1 + 2 + 3 + 4 +   1 + 2 + 3 + 4 +   1 + 2 + 3 + 4 +   1 + 2 + 3 + 4 +
E|-----------------|-----------------|-----------------|-----------------|
B|-----------------|-----------------|-----------------|-----------------|
G|-----------------|---5-5-5-5-5---5-|-----------------|-----------------|
D|---3-3-3-3-3---3-|---5-5-5-5-5---5-|---7-7-7-7-7---7-|-9-9-9-9-9-9-9-9-|
A|---3-3-3-3-3---3-|---3-3-3-3-3---3-|---7-7-7-7-7---7-|-9-9-9-9-9-9-9-9-|
E|---1-1-1-1-1---1-|-----------------|---5-5-5-5-5---5-|-7-7-7-7-7-7-7-7-|
 |
 |
 | 1 + 2 + 3 + 4 +   1 + 2 + 3 + 4 +   1 + 2 + 3 + 4 +   1 + 2 + 3 + 4 +
E|-----------------|-----------------|-----------------|-----------------|
B|-----------------|-----------------|-----------------|-----------------|
G|-----------------|---5-5-5-5-5---5-|-----------------|-----------------|
D|---3-3-3-3-3---3-|---5-5-5-5-5---5-|---7-7-7-7-7---7-|-9-9-9-9-9-9-9-9-|
A|---3-3-3-3-3---3-|---3-3-3-3-3---3-|---7-7-7-7-7---7-|-9-9-9-9-9-9-9-9-|
E|---1-1-1-1-1---1-|-----------------|---5-5-5-5-5---5-|-7-7-7-7-7-7-7-7-|


Chorus (Cont.)

   1 + 2 + 3 + 4 +   1 + 2 + 3 + 4 +   1 + 2 + 3 + 4 +   1 + 2 + 3 + 4 +
E|-----------------|-----------------|-----------------|-----------------|
B|-----------------|-----------------|-----------------|-----------------|
G|101010-9-9-91717-|17-9-9-91010-9-9-|101010-9-9-91717-|1717171717171717-|
D|-x-x-x-x-x-x-x-x-|-x-x-x-x-x-x-x-x-|-x-x-x-x-x-x-x-x-|-x-x-x-x-x-x-x-x-|
A|-8-8-8-7-7-71515-|15-7-7-7-8-8-7-7-|-8-8-8-7-7-71515-|1515151515151515-|
E|-----------------|-----------------|-----------------|-----------------|
 |
 |
 | 1 + 2 + 3 + 4 +   1 + 2 + 3 + 4 +   1 + 2 + 3 + 4 +   1 + 2 + 3 + 4 +
E|-----------------|-----------------|-----------------|-----------------|
B|-----------------|-----------------|-----------------|-----------------|
G|-5-5-5-5-5-5-5-5-|-5-5-5-5-5-5-5-5-|-----------------|-----------------|
D|-5-5-5-5-5-5-5-5-|-5-5-5-5-5-5-5-5-|-5-5-5-5-5-5-5-5-|-5-5-5-5-5-5-5-5-|
A|-3-3-3-3-3-3-3-3-|-3-3-3-3-3-3-3-3-|-5-5-5-5-5-5-5-5-|-5-5-5-5-5-5-5-5-|
E|-----------------|-----------------|-3-3-3-3-3-3-3-3-|-3-3-3-3-3-3-3-3-|



   1 + 2 + 3 + 4 +   1 + 2 + 3 + 4 +   1 + 2 + 3 + 4 +   1 + 2 + 3 + 4 +
E|-----------------|-----------------|-----------------|-----------------|
B|-----------------|-----------------|-----------------|-----------------|
G|-7-7-9-91010-9-9-|1010121212121212-|141412121010-9-9-|1010-9-9-7-7-7-7-|
D|-x-x-x-x-x-x-x-x-|-x-x-x-x-x-x-x-x-|-x-x-x-x-x-x-x-x-|-x-x-x-x-x-x-x-x-|
A|-5-5-7-7-8-8-7-7-|-8-8101010101010-|12121010-8-8-7-7-|-8-8-7-7-5-5-5-5-|
E|-----------------|-----------------|-----------------|-----------------|
 |
 |
 | 1 + 2 + 3 + 4 +   1 + 2 + 3 + 4 +   1 + 2 + 3 + 4 +   1 + 2 + 3 + 4 +
E|-----------------|-----------------|-----------------|-----------------|
B|-----------------|-----------------|-----------------|-----------------|
G|-----------------|-----------------|-----------------|-----------------|
D|-7-7-7-7-7-7-7-7-|-7-7-7-7-7-7-7-7-|-3-3-3-3-3-3-3-3-|-5-5-5-5-5-5-5-5-|
A|-7-7-7-7-7-7-7-7-|-7-7-7-7-7-7-7-7-|-3-3-3-3-3-3-3-3-|-5-5-5-5-5-5-5-5-|
E|-5-5-5-5-5-5-5-5-|-5-5-5-5-5-5-5-5-|-1-1-1-1-1-1-1-1-|-3-3-3-3-3-3-3-3-|



   1 + 2 + 3 + 4 +   1 + 2 + 3 + 4 +   1 + 2 + 3 + 4 +   1 + 2 + 3 + 4 +
E|-----------------|-----------------|-----------------|-----------------|
B|-----------------|-----------------|-----------------|-----------------|
G|101010-9-9-91717-|17-9-9-91010-9-9-|101010-9-9-91717-|1717171717171717-|
D|-x-x-x-x-x-x-x-x-|-x-x-x-x-x-x-x-x-|-x-x-x-x-x-x-x-x-|-x-x-x-x-x-x-x-x-|
A|-8-8-8-7-7-71515-|15-7-7-7-8-8-7-7-|-8-8-8-7-7-71515-|1515151515151515-|
E|-----------------|-----------------|-----------------|-----------------|
 |
 |
 | 1 + 2 + 3 + 4 +   1 + 2 + 3 + 4 +   1 + 2 + 3 + 4 +   1 + 2 + 3 + 4 +
E|-----------------|-----------------|-----------------|-----------------|
B|-----------------|-----------------|-----------------|-----------------|
G|-5-5-5-5-5-5-5-5-|-5-5-5-5-5-5-5-5-|-----------------|-----------------|
D|-5-5-5-5-5-5-5-5-|-5-5-5-5-5-5-5-5-|-5-5-5-5-5-5-5-5-|-5-5-5-5-5-5-5-5-|
A|-3-3-3-3-3-3-3-3-|-3-3-3-3-3-3-3-3-|-5-5-5-5-5-5-5-5-|-5-5-5-5-5-5-5-5-|
E|-----------------|-----------------|-3-3-3-3-3-3-3-3-|-3-3-3-3-3-3-3-3-|



   1 + 2 + 3 + 4 +   1 + 2 + 3 + 4 +   1 + 2 + 3 + 4 +   1 + 2 + 3 + 4 +
E|-----------------|-----------------|-----------------|-----------------|
B|-----------------|-----------------|-----------------|-----------------|
G|-7-7-9-91010-9-9-|1010121212121212-|141412121010-9-9-|1010-9-9-7-7-7-7-|
D|-x-x-x-x-x-x-x-x-|-x-x-x-x-x-x-x-x-|-x-x-x-x-x-x-x-x-|-x-x-x-x-x-x-x-x-|
A|-5-5-7-7-8-8-7-7-|-8-8101010101010-|12121010-8-8-7-7-|-8-8-7-7-5-5-5-5-|
E|-----------------|-----------------|-----------------|-----------------|
 |
 |
 | 1 + 2 + 3 + 4 +   1 + 2 + 3 + 4 +   1 + 2 + 3 + 4 +   1 + 2 + 3 + 4 +
E|-----------------|-----------------|-----------------|-----------------|
B|-----------------|-----------------|-----------------|-----------------|
G|-----------------|-----------------|-----------------|-----------------|
D|-7-7-7-7-7-7-7-7-|-7-7-7-7-7-7-7-7-|-3-3-3-3-3-3-3-3-|-5-5-5-5-5-5-5-5-|
A|-7-7-7-7-7-7-7-7-|-7-7-7-7-7-7-7-7-|-3-3-3-3-3-3-3-3-|-5-5-5-5-5-5-5-5-|
E|-5-5-5-5-5-5-5-5-|-5-5-5-5-5-5-5-5-|-1-1-1-1-1-1-1-1-|-3-3-3-3-3-3-3-3-|


Outro

   1 + 2 + 3 + 4 +   1 + 2 + 3 + 4 +   1 + 2 + 3 + 4 +   1 + 2 + 3 + 4 +
E|-----------------|-----------------|-----------------|-----------------|
B|-----------------|-----------------|-----------------|-----------------|
G|101010-9-9-91010-|10-9-9-91010-9-9-|101010-9-9-91010-|10-9-9-910101010-|
D|-x-x-x-x-x-x-x-x-|-x-x-x-x-x-x-x-x-|-x-x-x-x-x-x-x-x-|-x-x-x-x-x-x-x-x-|
A|-8-8-8-7-7-7-8-8-|-8-7-7-7-8-8-7-7-|-8-8-8-7-7-7-8-8-|-8-7-7-7-8-8-8-8-|
E|-----------------|-----------------|-----------------|-----------------|
 |
 |
 | 1 + 2 + 3 + 4 +   1 + 2 + 3 + 4 +   1 + 2 + 3 + 4 +   1 + 2 + 3 + 4 +
E|-----------------|-----------------|-----------------|-----------------|
B|-----------------|-----------------|-----------------|-----------------|
G|-5~--------------|(5)~-------------|(5)~-------------|(5)~-------------|
D|-5~--------------|(5)~-------------|(5)~-------------|(5)~-------------|
A|-3~--------------|(3)~-------------|(3)~-------------|(3)~-------------|
E|-----------------|-----------------|-----------------|-----------------|


End on

   1 + 2 + 3 + 4 +
E|-----------------|
B|-----------------|
G|-9~--------------|
D|-x~--------------|
A|-7~--------------|
E|-----------------|
 |
 |
 | 1 + 2 + 3 + 4 +
E|-----------------|
B|-----------------|
G|(5)~-------------|
D|(5)~-------------|
A|(3)~-------------|
E|-----------------|


there you go, enjoy!
1 comment total.
-1 reply
anustheuranus wrote on October 16 2007, 12:39 pm

Its in Drop C i believe

I want to post or [tab]
guest
You may want to rate the tab now too:
select rating
Please do not post tabs as comments. Select "correction" instead!