Oops, an error
Loading. Please wait.

As She Smiles Tab

ver1
ver1

Whole song

Interactive

More versions @911Tabs.com
39 views 1 this week
no commentswrite comment
1 2 3 4 5
please rate
Autoscroll
+/-
esc
set tempo
stop
Hey! There's an official Ultimate Guitar app which is ideal
for learning songs when you're away from computer. Get the app
WARNING: You are trying to view
                                    content from Ultimate-Guitar.com
                                    in an unauthorized application,
                                    which is prohibited.

                                    Please use an official Ultimate
                                    Guitar Tabs application for iPhone,
                                    iPad or Android to access legitimate
                                    chords, guitar, bass, and drum tabs
                                    from Ultimate-Guitar.com database.

                                    Type "ultimate guitar tabs" in Apple
                                    App Store's or Android Market's
                                    search to find the application.
#----------------------------------PLEASE NOTE---------------------------------#
#This file is the author's own work and represents their interpretation of the #
#song. You may only use this file for private study, scholarship, or research. #
#------------------------------------------------------------------------------##

                                  AS SHE SMILES
                            As recorded by Quinn Peck

Music by Quinn Peck
Transcribed by guitarist5240

Gtr I (E A D G B E) - 'Untitled'
Gtr II (E A D G B E) - 'Untitled'
Gtr III (E A D G B E) - 'Untitled'

 Intro
  Q=120
  Am                                    G
 4/4
  Gtr I
  E E E E E E E E   E E E E E E S S E   E E E E E E E E   E E E E E E E E
|---------------0-|-------------------|---------------3-|------------------|
|---------1-------|-1---1-------------|---------3-------|-3---3------------|
|---2-------2-----|---2---2---------0-|---0-------0-----|---0---0-------0--|
|-----2-------2---|---------2---0h2---|-----0-------0---|---------0---0----|
|-0-----0---------|-----------0-------|-------2---------|-----------2------|
|-----------------|-------------------|-3---------------|------------------|


  D                                   C                 G
  E E E E E E E E   E E E E E E E E   E E E E E E E E   E E E E E E E E
|---------2-----3-|-----2-----------|-----------------|-----------------|
|---3-------3-----|-3-----3-------3-|-----3-----3---3-|-----3-----3---3-|
|-----2-------2---|---2-----2---2---|---0-----0-------|---0-----0-------|
|-0-----0---------|-----------0-----|-----------------|-----------------|
|-----------------|-----------------|-3-----3-----3---|-2-----2-----2---|
|-----------------|-----------------|-----------------|-----------------|
|
| Gtr II
|                                             <
| W                 W                 H       E E E E   E E E E E E E E
|-----------------|-----------------|---------3-3-3-3-|-3-3-3-3-3-3-3-3-|
|-----------------|-----------------|---------3-3-3-3-|-3-3-3-3-3-3-3-3-|
|-----------------|-----------------|---------0-0-0-0-|-0-0-0-0-0-0-0-0-|
|-----------------|-----------------|---------0-0-0-0-|-0-0-0-0-0-0-0-0-|
|-----------------|-----------------|-----------------|-----------------|
|-----------------|-----------------|-----------------|-----------------|


   Verse
    Am             Dsus2/A Am    Esus4/EsAm4/EsusG/A
    Gtr I
    E  E E E E E E E    E  E  E  E  E  E S S E
||-----------------0-|-------------------------|
||o----------1-------|--1-----1----------------|
||-----2-------2-----|-----2-----2-----------0-|
||-------2-------2---|--------------2----0h2---|
||o-0------0---------|-----------------0-------|
||-------------------|-------------------------|
|
|   Q.     H       E   +E  E +E  E +E  E E   E
||-------------------|-------------------------|
||o-1------1-------3-|-(3)-1-(1)-0-(0)-0-1---0-|
||--2------2-------2-|-(2)-2-(2)-2-(2)-2-2---2-|
||--2------2-------2-|-(2)-2-(2)-2-(2)-2-2---2-|
||o-0------0-------0-|-(0)-0-(0)-0-(0)-0-0---0-|
||-------------------|-------------------------|


  E E E E E E E E    E  E E E E E E E
|---------------3-|-------------------|
|---------3-------|--3----3---------0-|
|---0-------0-----|-----0---0---------|
|-----0-------0---|-----------0---0---|
|-------2---------|-------------2-----|
|-3---------------|-------------------|
|
| H       Q   E E   +Q    Q   Q   E E
|---------3---3-3-|-(3)-------3---3-3-|
|---------3---3-3-|-(3)-------3---3-3-|
|---------0---0-0-|-(0)-------0---0-0-|
|-0---------------|-------0-----------|
|-2---------------|-------2-----------|
|-3---------------|-------3-----------|


  D              Dsus4   D     Dsus2 DsDs2
  E  E E E E E E E    E  E  E  E  E  E E E
|----------2-----3-|--------2--------------|
|----3-------3-----|--3--------3---------3-|
|------2-------2---|-----2--------2----2---|
|-0------0---------|-----------------0-----|
|------------------|-----------------------|
|------------------|-----------------------|
|
| Q.     H       E   +E  E +E  E +E  E E E
|-2------2-------3-|-(3)-2-(2)-0-(0)-0-2-2-|
|-3------3-------3-|-(3)-3-(3)-3-(3)-3-3-3-|
|-2------2-------2-|-(2)-2-(2)-2-(2)-2-2-2-|
|-0------0-------0-|-(0)-0-(0)-0-(0)-0-0-0-|
|------------------|-----------------------|
|------------------|-----------------------|


  1.
  C                 G
  E E E E E E E E   E E E E E E E E
|-----------------|------------------||
|-----3-----3---3-|-----3-----3---3-o||
|---0-----0-------|---0-----0--------||
|-----------------|------------------||
|-3-----3-----3---|-2-----2-----2---o||
|-----------------|------------------||
|
| E E E E E E E E   E E E E E E E E
|-----------0---3-|-----------0---3--||
|-----3-----------|-----3-----------o||
|---0-----0-------|---0-----0--------||
|-----------------|------------------||
|-3-----3-----3---|-2-----2-----2---o||
|-----------------|------------------||


  2.
  C                 G
  E E E E E E E E   E E E E E   E  E  E
|-----------------|---------------------|
|-----3-----3---3-|-----3-------3-----3-|
|---0-----0-------|---0-----0-----------|
|-----------------|---------------------|
|-3-----3-----3---|-2-----2--------2----|
|-----------------|---------------------|
|
| E E E E E E E E   E E E E E   E  E  E
|-----------0---3-|-------------0-----0-|
|-----3-----------|-----3---------------|
|---0-----0-------|---0-----0-----------|
|-----------------|---------------------|
|-3-----3-----3---|-2-----2--------2----|
|-----------------|---------------------|
|
| Gtr III
| W                 H       E   E  E  E
|-----------------|---------------------|
|-----------------|---------------------|
|-----------------|---------------12-14-|
|-----------------|-----------/14-------|
|-----------------|---------------------|
|-----------------|---------------------|


 Pre Chorus
  D                             Em7/C        G/B
   E  E   E  E  E  E  E     E    E    E   E  E  E E  E     E
|---------------2-------------|-------------------------------|
|-----3------------3----------|-----------3-------3--------3--|
|---------2-----------2-------|-------0---------0-------------|
|--0---------0--------------0-|-------------------------------|
|-----------------------------|--3-----------2----------------|
|-----------------------------|----------------------3----(3)-|
|
|  Q.        E +H                Q.          Q.      Q
|--2---------2-(2)------------|-------------------------------|
|--3---------3-(3)------------|--3-----------3----------------|
|--2---------2-(2)------------|--0-----------0----------------|
|--0---------0-(0)------------|--2-----------0----------------|
|-----------------------------|--3-----------2----------------|
|-----------------------------|----------------------3--------|
|
| Gtr III
|  ~~~~~~~~~~                    ~~~~~~~~~~~~
|  Q     +H           S  S  E    Q       +H          S  S  E
|-----------------------------|-------------------------------|
|-15----(15)---------15-12-15-|-15------(15)--------15-12-15--|
|-14----(14)---------14-12-14-|-14b16---(14)--------14-12-14--|
|-----------------------------|-------------------------------|
|-----------------------------|-------------------------------|
|-----------------------------|-------------------------------|


  D                      Em7/C   G/B
   E  E E E  E  E  E E    E  E E E  E  E  E  E
|------------2---------|--------------------------|
|-----3---------3------|-------3-------3-----3----|
|-------2----------2---|-----0------0-------------|
|--0------0----------0-|--------------------------|
|----------------------|--3------2----------------|
|----------------------|------------------3-(3)---|
|
|  Q.     E +H            Q.     E +H
|--2------2-(2)--------|--------------------------|
|--3------3-(3)--------|--3------3-(3)------------|
|--2------2-(2)--------|--0------0-(0)------------|
|--0------0-(0)--------|--2------0-(0)------------|
|----------------------|--3------2-(2)------------|
|----------------------|--------------------------|
|
|  ~~~                    ~~~
|  H.              Q      H.              Q
|----------------------|--------------------------|
|----------------------|--------------------------|
|-14--------------11---|-12--------------11-------|
|-12-------------------|-14-----------------------|
|----------------------|--------------------------|
|----------------------|--------------------------|


   Chorus
    Am            DsAm2/A EsusC/A           EmC/C   Em/C
      E   E    E  E E E E E     E   E    E  E E E E E
||--------------------0-----|-------------------0-----|
||o-----------------1---1---|-----------------1---1---|
||-------------2----------0-|------------0----------0-|
||--------2-------2---------|-------2-------2---------|
||o---0---------------------|---3---------------------|
||--------------------------|-------------------------|
|
|   Gtr II
|     Q        E  E Q   E E     Q        E  E Q   E E
||----0--------0--0-0---0-0-|-------------------------|
||o---1--------1--3-1---1-0-|---1--------1--3-1---1-0-|
||----2--------2--2-2---2-2-|---0--------0--0-0---0-0-|
||----2--------2--2-2---2-2-|---2--------2--2-2---2-2-|
||o---0--------0--0-0---0-0-|---3--------3--3-3---3-3-|
||--------------------------|-------------------------|
|
|     E   E   +H.               E   E   +H.
||--------------------------|-------------------------|
||o------13--(13)-----------|------13--(13)-----------|
||--/14-(14)-(14)-----------|-/12-(12)-(12)-----------|
||--------------------------|-------------------------|
||o-------------------------|-------------------------|
||--------------------------|-------------------------|


  1.
  G                         Em                D
    E   E    E  E E E E E     E   E    E  E     E   E    E  E
|-------------------3-----|-------------------------2------------||
|-----------------3---3---|---------------------3--------3------o||
|------------0----------0-|---------------------------------2----||
|-------0-------0---------|------------2-------------------------||
|---2---------------------|-------2-------2---------------------o||
|-------------------------|---0----------------------------------||
|
|   Q        E  E Q   E E     Q        E  S S   Q        E  S S
|---3--------3--3-3---3-3-|---------------------2--------2--2-2--||
|---3--------3--0-3---3-0-|---0--------0--0-0---3--------3--3-3-o||
|---0--------0--0-0---0-0-|---0--------0--0-0---2--------2--2-2--||
|---0--------0--0-0---0-0-|---2--------2--2-2---0--------0--0-0--||
|---2--------2--2-2---2-2-|---2--------2--2-2-------------------o||
|---3--------3--3-3---3-3-|---0--------0--0-0--------------------||
|
|   E   E   +H.               E   E   +Q        E   E   +Q
|-------------------------|--------------------------------------||
|------12--(12)-----------|------------------------15--(15)-----o||
|-/12-(12)-(12)-----------|------12--(12)-----/14-(14)-(14)------||
|-------------------------|-/14-(14)-(14)------------------------||
|-------------------------|-------------------------------------o||
|-------------------------|--------------------------------------||


  2.
                                                      D.C.
  G                         Em              D
    E   E    E  E E E E E     E   E    E  E   E   E    E  E
|-------------------3-----|-----------------------2---------|
|-----------------3---3---|-------------------3--------3----|
|------------0----------0-|-------------------------------2-|
|-------0-------0---------|------------2--------------------|
|---2---------------------|-------2-------2-----------------|
|-------------------------|---0-----------------------------|
|
|   Q        E  E Q   E E     Q        E  E   H
|---3--------3--3-3---3-3-|-------------------2-------------|
|---3--------3--0-3---3-0-|---0--------0--0---3-------------|
|---0--------0--0-0---0-0-|---0--------0--0---2-------------|
|---0--------0--0-0---0-0-|---2--------2--2---0-------------|
|---2--------2--2-2---2-2-|---2--------2--2-----------------|
|---3--------3--3-3---3-3-|---0--------0--0-----------------|
|
|                                                 >
|   E   E   +H.               E   E   +Q      E   E   +Q
|-------------------------|---------------------------------|
|------12--(12)-----------|----------------------15--(15)---|
|-/12-(12)-(12)-----------|------12--(12)---/14-(14)-(14)---|
|-------------------------|-/14-(14)-(14)-------------------|
|-------------------------|---------------------------------|
|-------------------------|---------------------------------|


  Am                                    G
  E E E E E E E E   E E E E E E S S E   E E E E E E E E   E E E E E E E E
|---------------0-|-------------------|---------------3-|-----------------|
|---------1-------|-1---1-------------|---------3-------|-3---3---------0-|
|---2-------2-----|---2---2---------0-|---0-------0-----|---0---0---------|
|-----2-------2---|---------2---0h2---|-----0-------0---|---------0---0---|
|-0-----0---------|-----------0-------|-------2---------|-----------2-----|
|-----------------|-------------------|-3---------------|-----------------|


  D                                   C                 G
  E E E E E E E E   E E E E E E E E   E E E E E E E E    E  E E E E E E E
|---------2-----3-|-----2-----------|-----------------|-------------------|
|---3-------3-----|-3-----3-------3-|-----3-----3---3-|-------3-----3---3-|
|-----2-------2---|---2-----2---2---|---0-----0-------|-----0-----0-------|
|-0-----0---------|-----------0-----|-----------------|-------------------|
|-----------------|-----------------|-3-----3-----3---|--2------2-----2---|
|-----------------|-----------------|-----------------|-------------------|
|
| Gtr III
|                                     <
| W                 W                 W                 +W
|-----------------|-----------------|-----------------|-------------------|
|-----------------|-----------------|-----------------|-------------------|
|-----------------|-----------------|-----------------|-------------------|
|-----------------|-----------------|-5---------------|-(5)---------------|
|-----------------|-----------------|-----------------|-------------------|
|-----------------|-----------------|-3---------------|-(3)---------------|


 Guitar Solo
  Am
  Gtr I
   E E E E   E  E  E    E       E E E E   E    E  S S  E
|-----------------------0----|---------------------------|
|------------1---------------|--1---1--------------------|
|----2----------2------------|----2---2----------------0-|
|------2-----------2---------|------------2-------0h2----|
|--0-----0-------------------|-----------------0---------|
|----------------------------|---------------------------|
|
| Gtr III
|  ~~~~~~~~~~~~~                ~~~~~~~~~~~~~
|                  |---3---|
|  H        +Q     E  E    E    H        +E    E  E    E
|----------------------------|-15-------(15)-------------|
|----------------------------|---------------------------|
|-14-------(14)--------------|-12-------(12)-----12---14-|
|-14-------(14)---14-12---14-|---------------/14---------|
|----------------------------|---------------------------|
|----------------------------|---------------------------|


  G
   E     E E E   E   E  E    E       E  E E E E E E  E
|----------------------------3----|---------------------|
|----------------3----------------|--3----3----------0--|
|--------0-----------0------------|-----0---0-----------|
|----------0------------0---------|-----------0---0-----|
|------------2--------------------|-------------2-------|
|--3------------------------------|---------------------|
|
|  ~~~~~~~~~~~~~~~~~~                ~~~
|                       |---3---|
|  H            +Q      E  E    E    H.           E  E
|---------------------------------|---------------------|
|-15-------------------13-12------|-12------------------|
|-14b16========(14)r-----------12-|-12------------------|
|---------------------------------|-----------------12--|
|---------------------------------|---------------------|
|---------------------------------|---------------------|


  D
   E    E     E    E     E    E     E     E    E    E     E    E     E    E     E  E
|------------------------2----------------3-|-------------2--------------------------|
|-------3---------------------3-------------|--3---------------3-------------------3-|
|-------------2---------------------2-------|-------2----------------2----------2----|
|--0---------------0------------------------|-----------------------------0----------|
|-------------------------------------------|----------------------------------------|
|-------------------------------------------|----------------------------------------|
|
|  |---3---|  |---3---|  |---3---|             |---3---|  |---3---|  |---3---|
|  E  E    E  E  E    E  E  E    E  S  S  E    E  E    E  E  E    E  E  E    E  E  E
|-------------------------------------------|----------------------------------------|
|-------------------------------------------|-13p12------13p12------13p12------12----|
|-14p12------14p12------14p12------14p12----|---------12---------12---------12----12-|
|---------12---------12---------12-------12-|----------------------------------------|
|-------------------------------------------|----------------------------------------|
|-------------------------------------------|----------------------------------------|


  C                                             G
   E    E     E    E     E    E     E    E       E    E     E    E     E    E     E    E
|---------------------------------------------|--------------------------------------------|
|-------------3---------------3----------3----|-------------3---------------3----------3---|
|-------0----------------0--------------------|-------0----------------0-------------------|
|---------------------------------------------|--------------------------------------------|
|--3---------------3----------------3---------|--2---------------2----------------2--------|
|---------------------------------------------|--------------------------------------------|
|
|  |---3---|  |---3---|  |---3---|  |---3---|    |---3---|  |---3---|  |---3---|
|  E  E    E  E  E    E  E  E    E  E  E    E    E  E    E  E  E    E  E  E    E  Q
|---------------------------------------------|-15p12------15p12------15p12------15b17-----|
|-15p12------15p12------15p12------15p12------|---------15---------15---------15-----------|
|---------12---------12---------12---------12-|--------------------------------------------|
|---------------------------------------------|--------------------------------------------|
|---------------------------------------------|--------------------------------------------|
|---------------------------------------------|--------------------------------------------|


  Am
   E E E E  E    E    E  E    E     E       E     E     E       E     S    S    E
|------------------------0-|---------------------------------------------------------|
|-----------1--------------|--1-------------1----------------------------------------|
|----2-----------2---------|--------2-------------2-----------------------------0----|
|------2--------------2----|----------------------------2-------------0h===2---------|
|--0-----0-----------------|------------------------------------0--------------------|
|--------------------------|---------------------------------------------------------|
|
|  ~~
|                                                                     |-----3------|
|  H        S  e   S  E  E    E     S  E       S  E     S  E       S  E       E    E
|-12-------12-15-----------|-------12---------12-------12---------12-----------------|
|--------------------15-12-|-------12---------12-------12---------12-----------------|
|--------------------------|-14b16----14b16------14b16----14b16------14b16---14---12-|
|--------------------------|---------------------------------------------------------|
|--------------------------|---------------------------------------------------------|
|--------------------------|---------------------------------------------------------|


  G
   E E E E  E     E  E     E    E   E E E E E E E
|--------------------------3-|---------------------|
|-----------3----------------|--3-----3---------0--|
|----0------------0----------|------0---0----------|
|------0-------------0-------|------------0---0----|
|--------2-------------------|--------------2------|
|--3-------------------------|---------------------|
|
|  H        S  S  E  S  S  E    H..             E
|----------------------------|---------------------|
|----------------------------|---------------------|
|-12-------------12-14-12-12-|-12---------------0--|
|----------12-14-------------|---------------------|
|----------------------------|---------------------|
|----------------------------|---------------------|


  D
   E  E     E  E E  E  E  E    E  E     E E E E E E
|----------------2--------3-|-----------2-----------|
|-----3-------------3-------|--3----------3-------3-|
|-----------2----------2----|-----2---------2---2---|
|--0-----------0------------|-----------------0-----|
|---------------------------|-----------------------|
|---------------------------|-----------------------|
|
|  ~~~~~~~~~~~~~~              ~~~~~~~~~~~~~
|  E.    E.    Q    E  E  E    E.    E.   Q   E E E
|---------------------------|-----------------------|
|-12----10----12---10-12-10-|-12----10----7---7-8-7-|
|-12----11----12---11-12-11-|-12-----9----7---7-9-7-|
|---------------------------|-----------------------|
|---------------------------|-----------------------|
|---------------------------|-----------------------|


  C                      G
   E  E    E E E E E E    E  E    E E E   E  E  E
|----------------------|--------------------------|
|----------3-----3---3-|----------3-------3-----3-|
|-----0--------0-------|-----0--------0-----------|
|----------------------|--------------------------|
|--3---------3-----3---|--2---------2--------2----|
|----------------------|--------------------------|
|
|  ~~~~~~~~~~~~
|  E.   E.   Q   E E E    E.   E.   Q     E  E  E
|----------------------|--------------------------|
|-10----8----5---5-7-5-|-10----8----3-------------|
|-11----9----5---5-7-5-|-11----9----4-------12-14-|
|----------------------|----------------/14-------|
|----------------------|--------------------------|
|----------------------|--------------------------|


 Pre-Chorus
  D                             Em7/C        G/B
  Gtr I
   E  E   E  E  E  E  E     E    E    E   E  E  E E  E     E
|---------------2-------------|-------------------------------|
|-----3------------3----------|-----------3-------3--------3--|
|---------2-----------2-------|-------0---------0-------------|
|--0---------0--------------0-|-------------------------------|
|-----------------------------|--3-----------2----------------|
|-----------------------------|----------------------3----(3)-|
|
| Gtr II
|  Q.        E +H                Q.          Q.      Q
|--2---------2-(2)------------|-------------------------------|
|--3---------3-(3)------------|--3-----------3----------------|
|--2---------2-(2)------------|--0-----------0----------------|
|--0---------0-(0)------------|--2-----------0----------------|
|-----------------------------|--3-----------2----------------|
|-----------------------------|----------------------3--------|
|
| Gtr III
|  ~~~~~~~~~~                    ~~~~~~~~~~~~
|  Q     +H           S  S  E    Q       +H          S  S  E
|-----------------------------|-------------------------------|
|-15----(15)---------15-12-15-|-15------(15)--------15-12-15--|
|-14----(14)---------14-12-14-|-14b16---(14)--------14-12-14--|
|-----------------------------|-------------------------------|
|-----------------------------|-------------------------------|
|-----------------------------|-------------------------------|


  D                      Em7/C   G/B
   E  E E E  E  E  E E    E  E E E  E  E  E  E
|------------2---------|--------------------------|
|-----3---------3------|-------3-------3-----3----|
|-------2----------2---|-----0------0-------------|
|--0------0----------0-|--------------------------|
|----------------------|--3------2----------------|
|----------------------|------------------3-(3)---|
|
|  Q.     E +H            Q.     E +H
|--2------2-(2)--------|--------------------------|
|--3------3-(3)--------|--3------3-(3)------------|
|--2------2-(2)--------|--0------0-(0)------------|
|--0------0-(0)--------|--2------0-(0)------------|
|----------------------|--3------2-(2)------------|
|----------------------|--------------------------|
|
|  ~~~                    ~~~
|  H.              Q      H.              Q
|----------------------|--------------------------|
|----------------------|--------------------------|
|-14--------------11---|-12--------------11-------|
|-12-------------------|-14-----------------------|
|----------------------|--------------------------|
|----------------------|--------------------------|


   Out-Chorus
    Am            DsAm2/A EsusC/A           EmC/C   Em/C
      E   E    E  E E E E E     E   E    E  E E E E E
||--------------------0-----|-------------------0-----|
||o-----------------1---1---|-----------------1---1---|
||-------------2----------0-|------------0----------0-|
||--------2-------2---------|-------2-------2---------|
||o---0---------------------|---3---------------------|
||--------------------------|-------------------------|
|
|     Q        E  E Q   E E     Q        E  E Q   E E
||----0--------0--0-0---0-0-|-------------------------|
||o---1--------1--3-1---1-0-|---1--------1--3-1---1-0-|
||----2--------2--2-2---2-2-|---0--------0--0-0---0-0-|
||----2--------2--2-2---2-2-|---2--------2--2-2---2-2-|
||o---0--------0--0-0---0-0-|---3--------3--3-3---3-3-|
||--------------------------|-------------------------|
|
|     E   E   +H.               E   E   +H.
||--------------------------|-------------------------|
||o------13--(13)-----------|------13--(13)-----------|
||--/14-(14)-(14)-----------|-/12-(12)-(12)-----------|
||--------------------------|-------------------------|
||o-------------------------|-------------------------|
||--------------------------|-------------------------|


  G                         Em                D
    E   E    E  E E E E E     E   E    E  E     E   E    E  E
|-------------------3-----|-------------------------2------------||
|-----------------3---3---|---------------------3--------3------o||
|------------0----------0-|---------------------------------2----||
|-------0-------0---------|------------2-------------------------||
|---2---------------------|-------2-------2---------------------o||
|-------------------------|---0----------------------------------||
|
|   Q        E  E Q   E E     Q        E  S S   Q        E  S S
|---3--------3--3-3---3-3-|---------------------2--------2--2-2--||
|---3--------3--0-3---3-0-|---0--------0--0-0---3--------3--3-3-o||
|---0--------0--0-0---0-0-|---0--------0--0-0---2--------2--2-2--||
|---0--------0--0-0---0-0-|---2--------2--2-2---0--------0--0-0--||
|---2--------2--2-2---2-2-|---2--------2--2-2-------------------o||
|---3--------3--3-3---3-3-|---0--------0--0-0--------------------||
|
|   E   E   +H.               E   E   +Q        E   E   +Q
|-------------------------|--------------------------------------||
|------12--(12)-----------|------------------------15--(15)-----o||
|-/12-(12)-(12)-----------|------12--(12)-----/14-(14)-(14)------||
|-------------------------|-/14-(14)-(14)------------------------||
|-------------------------|-------------------------------------o||
|-------------------------|--------------------------------------||


Duration Legend
---------------
W - whole; H - half; Q - quarter; E - 8th; S - 16th; T - 32nd; X - 64th; a - acciaccatura
+ - note tied to previous; . - note dotted; .. - note double dotted
Uncapitalized letters represent notes that are staccato (1/2 duration)
Irregular groupings are notated above the duration line
Duration letters will always appear directly above the note/fret number it represents the
duration for.  Duration letters with no fret number below them represent rests.  Multi-
bar rests are notated in the form Wxn, where n is the number of bars to rest for.  Low
melody durations appear below the staff

Tablature Legend
----------------
 h   - hammer-on
 p   - pull-off
 b   - bend
 pb  - pre-bend
 r   - bend release (if no number after the r, then release immediately)
 /\  - slide into or out of (from/to "nowhere")
 s   - legato slide
 S   - shift slide
  - natural harmonic
[n]  - artificial harmonic
n(n) - tapped harmonic
 ~   - vibrato
 tr  - trill
 T   - tap
 TP  - trem. picking
 PM  - palm muting
\n/  - tremolo bar dip; n = amount to dip
 \n  - tremolo bar down
 n/  - tremolo bar up
/n\  - tremolo bar inverted dip
 =   - hold bend; also acts as connecting device for hammers/pulls
 <>  - volume swell (louder/softer)
 x   - on rhythm slash represents muted slash
 o   - on rhythm slash represents single note slash

Misc Legend
-----------
 |  - bar
||  - double bar
||o - repeat start
o|| - repeat end
*|  - double bar (ending)
 :  - bar (freetime)
 $  - Segno
 &  - Coda
Tempo markers -  = BPM(8/16=s8/s16), where s8 = swing 8ths, s16 = swing 16ths


***************************************************************************************
* Generated using Power Tab Editor by Brad Larsen - http://powertab.guitarnetwork.org *
***************************************************************************************
comments
We did not receive enough feedback on this tab! Please rate:
print report bad tab
1 2 3 4 5
I want to post or [tab]
guest
You may want to rate the tab now too:
select rating
Please do not post tabs as comments. Select "correction" instead!