Oops, an error
Loading. Please wait.

Buy Yourself Tab

27 views 1 this week
no commentswrite comment
1 2 3 4 5
please rate
add to favorites launch autoscroll
font size
0
reset
Autoscroll
+/-
esc
set tempo
stop
WARNING: You are trying to view
                                    content from Ultimate-Guitar.com
                                    in an unauthorized application,
                                    which is prohibited.

                                    Please use an official Ultimate
                                    Guitar Tabs application for iPhone,
                                    iPad or Android to access legitimate
                                    chords, guitar, bass, and drum tabs
                                    from Ultimate-Guitar.com database.

                                    Type "ultimate guitar tabs" in Apple
                                    App Store's or Android Market's
                                    search to find the application.
#----------------------------------PLEASE NOTE---------------------------------#
#This file is the author's own work and represents their interpretation of the #
#song. You may only use this file for private study, scholarship, or research. #
#------------------------------------------------------------------------------##

                                  BUY YOURSELF
                            As recorded by Quinn Peck

Music by Quinn Peck
Arranged by Quinn Peck
Transcribed by guitarist5240

Gtr I (E A D G B E) - 'Untitled'
Gtr II (E A D G B E) - 'Untitled'
Gtr III (E A D G B E) - 'Untitled'

 Intro
  Q=120
  N.C.            N.C.            N.C.            N.C.
 4/4
  Gtr I
  a Q  E E H      a Q  E E H      a Q  E E H      a Q  E E H
|---------------|---------------|---------------|---------------|
|---------------|---------------|---------------|---------------|
|-8h9--9-8------|-6h7--7-6------|-8h9--9-8------|-6h7--7-6------|
|---9--9-9------|---7--7-7------|---9--9-9------|---7--7-7------|
|---------------|---------------|---------------|---------------|
|---------------|---------------|---------------|---------------|


  B               A                     B               A
  E E E  E H       E  E E  E  H         E E E  E H       E  E E  E  H
|---------------|---------------------|---------------|----------------------|
|---------------|---------------------|---------------|----------------------|
|-8h9-9--8------|--6h=7-7--6----------|-8h9-9--8------|--6h=7-7--6-----------|
|-9------9------|--7----7--7----------|-9---9--9------|--7----7--7-----------|
|---------------|---------------------|---------------|----------------------|
|---------------|---------------------|---------------|----------------------|
| Q   H.           Q    H.              Q   H.           Q    H.
|
| Gtr II
| >                                     >
| W               +H         +E  Q  E   W               +H         +E  Q  E
|---------------|---------------------|---------------|----------------------|
|---------------|---------------------|---------------|----------------------|
|-4-------------|-(4)--------(4)-2--2-|-4-------------|-(4)--------(4)-2--2--|
|-4-------------|-(4)--------(4)-2--2-|-4-------------|-(4)--------(4)-2--2--|
|-2-------------|-(2)--------(2)-0--0-|-2-------------|-(2)--------(2)-0--0--|
|---------------|---------------------|---------------|----------------------|


  B                        A
  E E E  E E E E    S  S   E E E  E E S S S   S  S  S
|------------------------|----------------------------|
|------------------------|----------------------------|
|-8h9-9--8---x-x----x--x-|-6h7-7--6---x-x-x---x--x--x-|
|-9---9--9---x-x----x--x-|-7---7--7---x-x-x---x--x--x-|
|------------------------|----------------------------|
|------------------------|----------------------------|
| Q   H.                   Q   H.
|
| W                        W
|------------------------|----------------------------|
|------------------------|----------------------------|
|-4----------------------|-2--------------------------|
|-4----------------------|-2--------------------------|
|-2----------------------|-0--------------------------|
|--------------3b5-(3)---|----------------5b7---(5)---|
  H.           E   +E      H.             E     +E


  B                        A
  E E E  E E E E    S  S   E E E  E E S S S S S S
|------------------------|------------------------|
|------------------------|------------------------|
|-8h9-9--8---x-x----x--x-|-6h7-7--6---x-x-x-x-x-x-|
|-9---9--9---x-x----x--x-|-7---7--7---x-x-x-x-x-x-|
|------------------------|------------------------|
|------------------------|------------------------|
| Q   H.                   Q   H.
|
| W                        W
|------------------------|------------------------|
|------------------------|------------------------|
|-4----------------------|-2----------------------|
|-4----------------------|-2----------------------|
|-2----------------------|-0----------------------|
|--------------3b5-(3)---|------------------------|
  H.           E   +E


   Verse
    B                      A
                                       ~~~
    E E E  E E S S E E     E E E  E E  Q.
||-----------------------|--------------------------|
||o----------------------|--------------------------|
||--8h9-9--8-------7-----|-6h7-7--6---/9------------|
||--9---9--9---7h9---9---|-7---7--7-----------------|
||o----------------------|--------------------------|
||-----------------------|--------------------------|
|   Q   H.                 Q   H.
|
|       PM                     PM
|   Q   E  E E E   E S S   Q   E  E E  S  S S S S S
||-----------------------|--------------------------|
||o----------------------|--------------------------|
||--4------4---x---x-x-x-|-2------2----x--x-x-x-x-x-|
||--4------4---x---x-x-x-|-2------2----x--x-x-x-x-x-|
||o-2---2--2---x---x-x-x-|-0---0--0-----------------|
||-----------------------|--------------------------|


  B                          A          D
  E E E  E E E     S S E     E E E  E E  Q.
|--------------------------|-------------------||
|--------------------------|------------------o||
|-8h9-9--8---9pb11r9p7-----|-6h7-7--6---<7>----||
|-9---9--9-------------9---|-7---7--7----------||
|--------------------------|------------------o||
|--------------------------|-------------------||
| Q   H.                     Q   H.
|
|     PM                         PM
| Q   E  E E E     E   S S   Q   E  E E  Q.
|--------------------------|----------x--2-----||
|--------------------------|----------x--3----o||
|-4------4---x-----x---x-x-|-2------2-x--2-----||
|-4------4---x-----x---x-x-|-2------2-x--0-----||
|-2---2--2---x-----x---x-x-|-0---0--0---------o||
|--------------------------|-------------------||


  C#                           B
                                            ~~~~
   E  E  E   E E S  S E  E     E E E  E E   Q.
|----------------------------|---------------------------|
|----------------------------|---------------------------|
|-10h11-11--10--------9------|-8h9-9--8---/11------------|
|-11----11--11---9h11---11---|-9---9--9------------------|
|----------------------------|---------------------------|
|----------------------------|---------------------------|
|  Q     H.                    Q   H.
|
|        PM                        PM
|  Q     E   E E E    E  S S   Q   E  E E   S  S S S S S
|----------------------------|---------------------------|
|----------------------------|---------------------------|
|--6---------6---x----x--x-x-|-4------4-----x--x-x-x-x-x-|
|--6---------6---x----x--x-x-|-4------4-----x--x-x-x-x-x-|
|--4-----4---4---x----x--x-x-|-2---2--2------------------|
|----------------------------|---------------------------|


  C#                                B   D5/A   D
   E  E  E   E E  E      S S  E     E E E  E E  Q.
|---------------------------------|-------------------|
|---------------------------------|-------------------|
|-10h11-11--10---11pb13r11p9------|-8h9-7--6---<7>----|
|-11----11--11---------------11---|-9---7--7----------|
|---------------------------------|-------------------|
|---------------------------------|-------------------|
|  Q     H.                         Q   H.
|
|        PM                             PM
|  Q     E   E E  E      E    S S   Q   E  E E  Q.
|---------------------------------|----------x--2-----|
|---------------------------------|----------x--3-----|
|--6---------6----x------x----x-x-|-4------2-x--2-----|
|--6---------6----x------x----x-x-|-4------2-x--0-----|
|--4-----4---4----x------x----x-x-|-2---0--0----------|
|---------------------------------|-------------------|


  B                    A
                                   ~~~
  E E E  E E S S E E   E E E  E E  Q.
|--------------------|--------------------|
|--------------------|--------------------|
|-8h9-9--8-------7---|-6h7-7--6---/9------|
|-9---9--9---7h9---9-|-7---7--7-----------|
|--------------------|--------------------|
|--------------------|--------------------|
| Q   H.               Q   H.
|
| PM---------------------------------------
| E E E  E E E   E E   E E E  E E  E  E E
|--------------------|--------------------|
|--------------------|--------------------|
|--------------------|--------------------|
|-4-4-4--4-4-4---4-4-|-2-2-2--2-2--2--2-2-|
|-2-2-2--2-2-2---2-2-|-0-0-0--0-0--0--0-0-|
|--------------------|--------------------|


  B                        A          D
  E E E  E E E     S S E   E E E  E E  Q.
|------------------------|-------------------|
|------------------------|-------------------|
|-8h9-9--8---9pb11r9p7---|-6h7-7--6---<7>----|
|-9---9--9-------------9-|-7---7--7----------|
|------------------------|-------------------|
|------------------------|-------------------|
| Q   H.                   Q   H.
|
|---------------------------------|
| E E E  E E E     E   E   E E E  E E  Q.
|------------------------|----------x--2-----|
|------------------------|----------x--3-----|
|------------------------|----------x--2-----|
|-4-4-4--4-4-4-----4---4-|-2-2-2--2-x--0-----|
|-2-2-2--2-2-2-----2---2-|-0-0-0--0----------|
|------------------------|-------------------|


 Chorus
  B                    D                    A                    E5 F#5G5 A5
  S S E H.             S S E H.             S S E H.             Q  Q  Q  Q
|--------------------|-2-2-2-2------------|--------------------|-------------|
|-4-4-4-4------------|-3-3-3-3------------|-2-2-2-2------------|-------------|
|-4-4-4-4------------|-2-2-2-2------------|-2-2-2-2------------|-------------|
|-4-4-4-4------------|-0-0-0-0------------|-2-2-2-2------------|----------2--|
|-2-2-2-2------------|--------------------|-0-0-0-0------------|-2--4--5--0--|
|--------------------|--------------------|--------------------|-0--2--3-----|
|
| <                    <                    <
|     PM|    PM|   PM      PM|    PM|   PM      PM|    PM|   PM
| E   E E  E E E E E   E   E E  E E E E E   E   E E  E E E E E   Q  Q  Q  Q
|--------------------|--------------------|--------------------|-------------|
|--------------------|-3---3-3--3-3-3-3-3-|--------------------|-------------|
|--------------------|-2---2-2--2-2-2-2-2-|--------------------|-------------|
|-4---4-4--4-4-4-4-4-|-0---0-0--0-0-0-0-0-|-2---2-2--2-2-2-2-2-|----------2--|
|-2---2-2--2-2-2-2-2-|--------------------|-0---0-0--0-0-0-0-0-|-2--4--5--0--|
|--------------------|--------------------|--------------------|-0--2--3-----|


  B                    D                    A                    C5 B5 F#5A5
  S S E H.             S S E H.             S S E H.             Q  Q  Q  Q
|--------------------|-2-2-2-2------------|--------------------|-------------|
|-4-4-4-4------------|-3-3-3-3------------|-2-2-2-2------------|-------------|
|-4-4-4-4------------|-2-2-2-2------------|-2-2-2-2------------|-------------|
|-4-4-4-4------------|-0-0-0-0------------|-2-2-2-2------------|-5--4-----2--|
|-2-2-2-2------------|--------------------|-0-0-0-0------------|-3--2--4--0--|
|--------------------|--------------------|--------------------|-------2-----|
|
| <                    <                    <
|     PM|    PM|   PM      PM|    PM|   PM      PM|    PM|   PM
| E   E E  E E E E E   E   E E  E E E E E   E   E E  E E E E E   Q  Q  Q  Q
|--------------------|--------------------|--------------------|-------------|
|--------------------|-3---3-3--3-3-3-3-3-|--------------------|-------------|
|--------------------|-2---2-2--2-2-2-2-2-|--------------------|-------------|
|-4---4-4--4-4-4-4-4-|-0---0-0--0-0-0-0-0-|-2---2-2--2-2-2-2-2-|-5--4-----2--|
|-2---2-2--2-2-2-2-2-|--------------------|-0---0-0--0-0-0-0-0-|-3--2--4--0--|
|--------------------|--------------------|--------------------|-------2-----|


   Verse
    B                         A
                   ~~~~
    E E E  E E S S Q          E E E  E E S S S S S S
||--------------------------|------------------------|
||o-------------------------|------------------------|
||--8h9-9--8---7-9-9b11-----|-6h7-7--6-------7h9p7---|
||--9---9--9----------------|-7---7--7---7h9-------9-|
||o-------------------------|------------------------|
||--------------------------|------------------------|
|   Q   H.                    Q   H.
|
|       PM                        PM
|   Q   E  E E E   E    S S   Q   E  E E S S S S S S
||--------------------------|------------------------|
||o-------------------------|------------------------|
||--4------4---x---x----x-x-|-2------2---x-x-x-x-x-x-|
||--4------4---x---x----x-x-|-2------2---x-x-x-x-x-x-|
||o-2---2--2---x---x----x-x-|-0---0--0---x-x-x-x-x-x-|
||--------------------------|------------------------|


  B                      A          D
  E E E  E E S S E E     E E E  E E  Q.
|----------------------|-------------------||
|----------------------|------------------o||
|-8h9-9--8-------7-----|-6h7-7--6---<7>----||
|-9---9--9---9p7---9---|-7---7--7----------||
|----------------------|------------------o||
|----------------------|-------------------||
| Q   H.                 Q   H.
|
|     PM                     PM
| Q   E  E E E   E S S   Q   E  E E  Q.
|----------------------|----------x--2-----||
|----------------------|----------x--3----o||
|-4------4---x---x-x-x-|-2------2-x--2-----||
|-4------4---x---x-x-x-|-2------2-x--0-----||
|-2---2--2---x---x-x-x-|-0---0--0---------o||
|----------------------|-------------------||


  C#                              B
                       ~~~~~
   E  E  E   E E S  S  Q          E E E  E E S  S S  S S  S
|-------------------------------|---------------------------|
|-------------------------------|---------------------------|
|-10h11-11--10---9-11-11b13-----|-8h9-9--8--------9h11p9----|
|-11----11--11------------------|-9---9--9---9h11--------11-|
|-------------------------------|---------------------------|
|-------------------------------|---------------------------|
|  Q     H.                       Q   H.
|
|        PM                           PM
|  Q     E   E E E     E    S S   Q   E  E E S  S S  S S  S
|-------------------------------|---------------------------|
|-------------------------------|---------------------------|
|--6---------6---x-----x----x-x-|-4------4---x--x-x--x-x--x-|
|--6---------6---x-----x----x-x-|-4------4---x--x-x--x-x--x-|
|--4-----4---4---x-----x----x-x-|-2---2--2------------------|
|-------------------------------|---------------------------|


  C#                           B   D5/A   D
   E  E  E   E E  S S E  E     E E E  E E  Q.
|----------------------------|-------------------|
|----------------------------|-------------------|
|-10h11-11--10--------9------|-8h9-7--6---<7>----|
|-11----11--11---11p9---11---|-9---7--7----------|
|----------------------------|-------------------|
|----------------------------|-------------------|
|  Q     H.                    Q   H.
|
|        PM                        PM
|  Q     E   E E  E   E  S S   Q   E  E E  Q.
|----------------------------|----------x--2-----|
|----------------------------|----------x--3-----|
|--6---------6----x---x--x-x-|-4------2-x--2-----|
|--6---------6----x---x--x-x-|-4------2-x--0-----|
|--4-----4---4----x---x--x-x-|-2---0--0----------|
|----------------------------|-------------------|


  B                       A
                 ~~~~
  E E E  E E S S Q        E E E  E E S S S S S S
|-----------------------|------------------------|
|-----------------------|------------------------|
|-8h9-9--8---7-9-9b11---|-6h7-7--6-------7h9p7---|
|-9---9--9--------------|-7---7--7---7h9-------9-|
|-----------------------|------------------------|
|-----------------------|------------------------|
| Q   H.                  Q   H.
|
| PM----------------------------------------------
| E E E  E E E   E    E   E E E  E E E   E   E
|-----------------------|------------------------|
|-----------------------|------------------------|
|-----------------------|------------------------|
|-4-4-4--4-4-4---4----4-|-2-2-2--2-2-2---2---2---|
|-2-2-2--2-2-2---2----2-|-0-0-0--0-0-0---0---0---|
|-----------------------|------------------------|


  B                    A          D
  E E E  E E S S E E   E E E  E E  Q.
|--------------------|-------------------|
|--------------------|-------------------|
|-8h9-9--8-------7---|-6h7-7--6---<7>----|
|-9---9--9---9p7---9-|-7---7--7----------|
|--------------------|-------------------|
|--------------------|-------------------|
| Q   H.               Q   H.
|
|-----------------------------|
| E E E  E E E   E E   E E E  E E  Q.
|--------------------|----------x--2-----|
|--------------------|----------x--3-----|
|--------------------|----------x--2-----|
|-4-4-4--4-4-4---4-4-|-2-2-2--2-x--0-----|
|-2-2-2--2-2-2---2-2-|-0-0-0--0----------|
|--------------------|-------------------|


 Chorus
  B                    D                    A                    E5 F#5G5 A5
  S S E H.             S S E H.             S S E H.             Q  Q  Q  Q
|--------------------|-2-2-2-2------------|--------------------|-------------|
|-4-4-4-4------------|-3-3-3-3------------|-2-2-2-2------------|-------------|
|-4-4-4-4------------|-2-2-2-2------------|-2-2-2-2------------|-------------|
|-4-4-4-4------------|-0-0-0-0------------|-2-2-2-2------------|----------2--|
|-2-2-2-2------------|--------------------|-0-0-0-0------------|-2--4--5--0--|
|--------------------|--------------------|--------------------|-0--2--3-----|
|
| <                    <                    <
|     PM|    PM|   PM      PM|    PM|   PM      PM|    PM|   PM
| E   E E  E E E E E   E   E E  E E E E E   E   E E  E E E E E   Q  Q  Q  Q
|--------------------|--------------------|--------------------|-------------|
|--------------------|-3---3-3--3-3-3-3-3-|--------------------|-------------|
|--------------------|-2---2-2--2-2-2-2-2-|--------------------|-------------|
|-4---4-4--4-4-4-4-4-|-0---0-0--0-0-0-0-0-|-2---2-2--2-2-2-2-2-|----------2--|
|-2---2-2--2-2-2-2-2-|--------------------|-0---0-0--0-0-0-0-0-|-2--4--5--0--|
|--------------------|--------------------|--------------------|-0--2--3-----|


  B                    D                    A                    C5 B5 F#5A5
  S S E H.             S S E H.             S S E H.             Q  Q  Q  Q
|--------------------|-2-2-2-2------------|--------------------|-------------|
|-4-4-4-4------------|-3-3-3-3------------|-2-2-2-2------------|-------------|
|-4-4-4-4------------|-2-2-2-2------------|-2-2-2-2------------|-------------|
|-4-4-4-4------------|-0-0-0-0------------|-2-2-2-2------------|-5--4-----2--|
|-2-2-2-2------------|--------------------|-0-0-0-0------------|-3--2--4--0--|
|--------------------|--------------------|--------------------|-------2-----|
|
| <                    <                    <
|     PM|    PM|   PM      PM|    PM|   PM      PM|    PM|   PM
| E   E E  E E E E E   E   E E  E E E E E   E   E E  E E E E E   Q  Q  Q  Q
|--------------------|--------------------|--------------------|-------------|
|--------------------|-3---3-3--3-3-3-3-3-|--------------------|-------------|
|--------------------|-2---2-2--2-2-2-2-2-|--------------------|-------------|
|-4---4-4--4-4-4-4-4-|-0---0-0--0-0-0-0-0-|-2---2-2--2-2-2-2-2-|-5--4-----2--|
|-2---2-2--2-2-2-2-2-|--------------------|-0---0-0--0-0-0-0-0-|-3--2--4--0--|
|--------------------|--------------------|--------------------|-------2-----|


 Bridge
  B                     A
  Gtr I
  E E E  E E  E E S S    E E E  E E  E E S S
|---------------------|----------------------|
|---------------------|----------------------|
|-8h9-8-------x-x-x-x-|--6h7-6-------x-x-x-x-|
|-9---9--9----x-x-x-x-|--7---7--7----x-x-x-x-|
|--------9------------|---------7------------|
|--------7------------|---------5------------|
| Q   H.                 Q   H.
|
| H        E  E Q        H        E  E Q
|---------------------|----------------------|
|---------------------|----------------------|
|---------------------|----------------------|
|---------------9-----|-/7-------------7-----|
|------------/9-------|-------------/7-------|
|---------------------|----------------------|


  G                   F      D
  E E E  E E  E E E   E E E  E E S S S S S S
|-------------------|--------2---x-x-x-x-x-x-|
|-------------------|--------3---x-x-x-x-x-x-|
|-4h5-4-------x-x-x-|-2h3-2--2---x-x-x-x-x-x-|
|-5---5--5----x-x-x-|-3---3--0---x-x-x-x-x-x-|
|--------5----------|------------------------|
|--------7----------|------------------------|
| Q   H.              Q   H.
|
| H        E  E Q     H        E E   Q
|-------------------|------------------------|
|-------------------|------------------------|
|-------------------|------------------------|
|---------------5---|----------------0-------|
|------------/5-----|------------3-----------|
|-------------------|------------------------|


  B                     A
  E E E  E E  E E S S    E E E  E E  E E S S
|---------------------|----------------------|
|---------------------|----------------------|
|-8h9-8-------x-x-x-x-|--6h7-6-------x-x-x-x-|
|-9---9--9----x-x-x-x-|--7---7--7----x-x-x-x-|
|--------9------------|---------7------------|
|--------7------------|---------5------------|
| Q   H.                 Q   H.
|
| H        E  E Q        H        E  E Q
|---------------------|----------------------|
|---------------------|----------------------|
|---------------------|----------------------|
|---------------9-----|-/7-------------7-----|
|------------/9-------|-------------/7-------|
|---------------------|----------------------|


  G                   F       D
  E E E  E E  E E E    E E E  E E S S S S  E
|-------------------|---------2---x-x-x-x----|
|-------------------|---------3---x-x-x-x-10-|
|-4h5-4-------x-x-x-|--2h3-2--2---x-x-x-x----|
|-5---5--5----x-x-x-|--3---3--0---x-x-x-x----|
|--------5----------|------------------------|
|--------7----------|------------------------|
| Q   H.               Q   H.
|
| H        E  E Q      H        E E   E    E
|-------------------|------------------------|
|-------------------|----------------------2-|
|-------------------|----------------------2-|
|---------------5---|-/7--------------3----2-|
|------------/5-----|-------------0--------0-|
|-------------------|------------------------|


 Guitar Solo
  B              D              A              E
   ~~~~~~~~~~~~~~~~~~~~~~~~~~~~~~~~~~~~~~~~~~~~~~~
                                                        |---3---|
   W              W              W             H.       E  E    E
|--------------|-10-----------|--------------|---------------------|
|-12-----------|--------------|-10-----------|-----------------10--|
|--------------|--------------|--------------|-9--------9-12-------|
|--------------|--------------|--------------|---------------------|
|--------------|--------------|--------------|---------------------|
|--------------|--------------|--------------|---------------------|
|
| Gtr II
|  H    Q  E E    H    Q  E E    H    Q  E E   H     Q  E    E
|--------------|--------------|--------------|---------------------|
|--------------|--------------|--------------|---------------------|
|--------------|--2-----------|--------------|---------------------|
|--4-------2h4-|--0-------2h4-|--2-----------|---------------------|
|--2-----------|--------------|--0-----------|-2-------------------|
|--------------|--------------|----------3h4-|-0--------2h===5-----|


  B              D
   ~~                       ~~~~
   W              H        +H
|--------------|-12b14----(12)------|
|-12-----------|--------------------|
|--------------|--------------------|
|--------------|--------------------|
|--------------|--------------------|
|--------------|--------------------|
|
|  H    Q  E E    H         Q   E E
|--------------|--------------------|
|--------------|--------------------|
|--------------|--2-----------------|
|--4-------2h4-|--0-------------2h4-|
|--2-----------|--------------------|
|--------------|--------------------|


  A                    E
   H.        S  S  E    H.          S S S S
|-12--------12-12-12-|----------------------|
|--------------------|-10b12-------10---7---|
|--------------------|----------------9---7-|
|--------------------|----------------------|
|--------------------|----------------------|
|--------------------|----------------------|
|
|  H     Q   E     E    H       Q   E   E
|--------------------|----------------------|
|--------------------|----------------------|
|--------------------|----------------------|
|--2-----------------|----------------------|
|--0-----------------|--2-------------------|
|------------3h====4-|--0-----------2h==5---|


  B                             D
                                ~~
                                         |--3--|
   Q      +Q    Q       E S S   H.       E E   E
|-----------------------------|------------------|
|-10-----(10)--10-----(10)----|----------------7-|
|--9b11---(9)---9b11r===9-7h9-|-7--------7-9-----|
|-----------------------------|------------------|
|-----------------------------|------------------|
|-----------------------------|------------------|
|
|  H            Q       E E     H     Q  E   E
|-----------------------------|------------------|
|-----------------------------|------------------|
|-----------------------------|-2----------------|
|--4--------------------2h4---|-0--------2h==4---|
|--2--------------------------|------------------|
|-----------------------------|------------------|


  A                  E
  ~~                 ~~~~
           |--3--|
  H.       E E   E   a W
|------------------|---------------|
|------------------|---------------|
|----------6-7---6-|---------------|
|-9----------------|---------------|
|------------------|-5S7-----------|
|------------------|---------------|
|
| H     Q  E   E       H    Q  E E
|------------------|---------------|
|------------------|---------------|
|------------------|---------------|
|-2----------------|---------------|
|-0----------------|---2-----------|
|----------3h==4---|---0-------2h5-|


  B                             D
  Q     Q     S S  S S Q        S S  S S E    S S  S S S S Q
|---------------7-------------|---7-------------7--------------|
|-7-----7-----7---10p7-7------|-7---10p7-7----7---10p7---------|
|-9b11--9b11-----------9b11---|----------9b11----------9p7-9---|
|-----------------------------|--------------------------------|
|-----------------------------|--------------------------------|
|-----------------------------|--------------------------------|
|
| H           Q        E    E   H                  Q       E E
|-----------------------------|--------------------------------|
|-----------------------------|--------------------------------|
|-----------------------------|-2------------------------------|
|-4--------------------2h===4-|-0--------------------------2h4-|
|-2---------------------------|--------------------------------|
|-----------------------------|--------------------------------|


  A                     E
                                     |-3-|
  Q     S E S E E E E   E E S S E Q  S S S E
|-------7---7---------|----------------------|
|-7-------7---7-------|----------------------|
|-9b11----------9-7-6-|-7-6-7p6------6-7-6---|
|---------------------|---------7----------7-|
|---------------------|-----------7----------|
|---------------------|----------------------|
|
| H           Q   E E   H         Q  E     E
|---------------------|----------------------|
|---------------------|----------------------|
|---------------------|----------------------|
|-2-------------------|----------------------|
|-0-------------------|-2--------------------|
|-----------------3h4-|-0------------2h====5-|


  B                   D                   A                  E
   ~~~                 ~~~                ~~                  ~~~
            |-3-|               |-3-|              |-3-|
   H.       S S S E    H.       S S S E   H.       S S S E    H.       S S S S
|-------------------|-------------------|------------------|-------------------|
|-------------------|-------------------|------------------|-------------------|
|-----------6-7-6---|-----------6-7-6---|-6--------6-7-6---|---------------7-7-|
|-/9--------------7-|-----------------7-|-7--------------7-|-----------9-9-----|
|-------------------|-/9----------------|------------------|-/7----------------|
|-------------------|-------------------|------------------|-------------------|
|
|  H     Q  E     E    H     Q  E     E   H     Q  E     E    H     Q  E   E
|-------------------|-------------------|------------------|-------------------|
|-------------------|-------------------|------------------|-------------------|
|-------------------|--2----------------|------------------|-------------------|
|--4--------2h====4-|--0--------2h====4-|-2----------------|-------------------|
|--2----------------|-------------------|-0----------------|--2----------------|
|-------------------|-------------------|----------3h====4-|--0--------2h==5---|


  B                             D
                                                ~~~
                                         |-3-|
  Q       S Q   S T T S S S E   Q     Q  E E E  Q
|---------7-----7-------------|---------------------|
|-----------------------------|---------------------|
|-9pb11=====9-----9r9-9-9p7-9-|-9b11--9--7h9p7------|
|-----------------------------|----------------/9---|
|-----------------------------|---------------------|
|-----------------------------|---------------------|
|
| H           Q         E   E   H        Q      E E
|-----------------------------|---------------------|
|-----------------------------|---------------------|
|-----------------------------|-2-------------------|
|-4---------------------2h==4-|-0---------------2h4-|
|-2---------------------------|---------------------|
|-----------------------------|---------------------|


  A              E
  H     H         Q   Q   Q   Q
|--------------|-------------------|
|-7----10------|-12--15--17--19----|
|--------------|-------------------|
|--------------|-------------------|
|--------------|-------------------|
|--------------|-------------------|
|
| H     Q  E E    H       Q   E E
|--------------|-------------------|
|--------------|-------------------|
|--------------|-------------------|
|-2------------|-------------------|
|-0------------|--2----------------|
|----------3h4-|--0-----------2h5--|


  B                          D                    A
                              TP
   Q      +Q    +Q    +Q      H         H          S  S  S  S  S  S  S  S  S  S  S  S  S  S  S  S
|--------------------------|--------------------|-22p19----19-------------------------------------|
|-22b24--(22)--(22)--(22)--|-22b24=====22r------|-------22----22p19-22p19----19-17p15-17p15----15-|
|--------------------------|--------------------|-------------------------21----------------16----|
|--------------------------|--------------------|-------------------------------------------------|
|--------------------------|--------------------|-------------------------------------------------|
|--------------------------|--------------------|-------------------------------------------------|
|
|  H             Q     E E    H         Q   E E    H                       Q           E     E
|--------------------------|--------------------|-------------------------------------------------|
|--------------------------|--------------------|-------------------------------------------------|
|--------------------------|--2-----------------|-------------------------------------------------|
|--4-------------------2h4-|--0-------------2h4-|--2----------------------------------------------|
|--2-----------------------|--------------------|--0----------------------------------------------|
|--------------------------|--------------------|--------------------------------------3h====4----|


  E
   S  S  S  S  S  S  S  S  S  S  S  S  S  S  S  S
|----------------------------------------------------|
|----------------------------------------------------|
|-16p14-16p14----14----------------------------------|
|-------------16----16p14-16p14----14-------16-14----|
|-------------------------------17----17-14----------|
|----------------------------------------------------|
|
|  H                       Q           E     E
|----------------------------------------------------|
|----------------------------------------------------|
|----------------------------------------------------|
|----------------------------------------------------|
|--2-------------------------------------------------|
|--0-----------------------------------2h====5-------|


  B                               D
   S  S  S  S  E  E  E  E  E  E    E  E  E  E  E  E  E  E
|-------------------------------|-------------------------|
|-------------------------------|-------------------------|
|-------------------------------|-------------------------|
|----14-------16-14----14-------|-16-14-16-14----14-------|
|-17----17-14-------17----17-14-|-------------17----17-14-|
|-------------------------------|-------------------------|
|
|  H                 Q     E  E    H           Q     E  E
|-------------------------------|-------------------------|
|-------------------------------|-------------------------|
|-------------------------------|--2----------------------|
|--4-----------------------2h=4-|--0-----------------2h=4-|
|--2----------------------------|-------------------------|
|-------------------------------|-------------------------|


  A                               E
   S  S  S  S  E  E  E  E  E  E    E  E  E  E  E  E  E  E
|-------------------------------|---------------------------|
|-------------------------------|---------------------------|
|-------------------------------|---------------------------|
|----14-------16-14----14-------|-16-14-16-14----14---------|
|-17----17-14-------17----17-14-|-------------17----17-14---|
|-------------------------------|---------------------------|
|
|  H                 Q     E  E    H           Q     E  E
|-------------------------------|---------------------------|
|-------------------------------|---------------------------|
|-------------------------------|---------------------------|
|--2----------------------------|---------------------------|
|--0----------------------------|--2------------------------|
|--------------------------3h=4-|--0-----------------2h=5---|


  B                         D
   S S  S S E E  E E  E E   E E E E  E E  E E
|-------------------------|-------------------|
|-------------------------|-------------------|
|-------------------------|-------------------|
|-------------------------|-------------------|
|----7------9-7----7------|-9-7-9-7----7------|
|-10---10-7-----10---10-7-|---------10---10-7-|
|
|  H             Q    E E   H        Q    E E
|-------------------------|-------------------|
|-------------------------|-------------------|
|-------------------------|-2-----------------|
|--4------------------2h4-|-0-------------2h4-|
|--2----------------------|-------------------|
|-------------------------|-------------------|


  H.=H
  A                         E           E5
   S S  S S E E  E E  E E   E E E E E E Q
|-------------------------|------------------|
|-------------------------|------------------|
|-------------------------|-------------9----|
|-------------------------|---------7-9-9----|
|----7------9-7----7------|-9-7-9-7-----7----|
|-10---10-7-----10---10-7-|-------------0----|
|
|  H             Q    E E   H       Q   Q
|-------------------------|------------------|
|-------------------------|------------------|
|-------------------------|-------------9----|
|--2----------------------|-------------9----|
|--0----------------------|-2-----------7----|
|---------------------3h4-|-0-----------0----|


  E5
   >
  +W           +W
|------------|--------|
|------------|--------|
|-(9)--------|-(9)----|
|-(9)--------|-(9)----|
|-(7)--------|-(7)----|
|-(0)--------|-(0)----|
|
|  >
| +W           +W
|------------|--------|
|------------|--------|
|-(9)--------|-(9)----|
|-(9)--------|-(9)----|
|-(7)--------|-(7)----|
|-(0)--------|-(0)----|


 Outro
  Q=120
  N.C.            N.C.            N.C.            N.C.
  a Q  E E H      a Q  E E H      a Q  E E H      a Q  E E H
|---------------|---------------|---------------|---------------|
|---------------|---------------|---------------|---------------|
|-8h9--9-8------|-6h7--7-6------|-8h9--9-8------|-6h7--7-6------|
|---9--9-9------|---7--7-7------|---9--9-9------|---7--7-7------|
|---------------|---------------|---------------|---------------|
|---------------|---------------|---------------|---------------|


  B               A                     B               A
  Gtr I
  E E E  E H       E  E E  E  H         E E E  E H       E  E E  E  H
|---------------|---------------------|---------------|----------------------|
|---------------|---------------------|---------------|----------------------|
|-8h9-9--8------|--6h=7-7--6----------|-8h9-9--8------|--6h=7-7--6-----------|
|-9------9------|--7----7--7----------|-9---9--9------|--7----7--7-----------|
|---------------|---------------------|---------------|----------------------|
|---------------|---------------------|---------------|----------------------|
| Q   H.           Q    H.              Q   H.           Q    H.
|
| Gtr II
| >                                     >
| W               +H         +E  Q  E   W               +H         +E  Q  E
|---------------|---------------------|---------------|----------------------|
|---------------|---------------------|---------------|----------------------|
|-4-------------|-(4)--------(4)-2--2-|-4-------------|-(4)--------(4)-2--2--|
|-4-------------|-(4)--------(4)-2--2-|-4-------------|-(4)--------(4)-2--2--|
|-2-------------|-(2)--------(2)-0--0-|-2-------------|-(2)--------(2)-0--0--|
|---------------|---------------------|---------------|----------------------|


  B                     A
  E E E  E H            E E E  E H
|---------------------|---------------------|
|---------------------|---------------------|
|-8h9-9--8------------|-6h7-7--6------------|
|-9------9------------|-7---7--7------------|
|---------------------|---------------------|
|---------------------|---------------------|
| Q   H.                Q   H.
|
| Gtr II
| W                     W
|---------------------|---------------------|
|---------------------|---------------------|
|-4-------------------|-2-------------------|
|-4-------------------|-2-------------------|
|-2-------------------|-0-------------------|
|-------------3b5-(3)-|-------------5b7-(5)-|
  H.          E   +E    H.          E   +E


  H.=H
  B                     A               B
  E E E  E H            E E E  E H      E E E  Q.   +E   E
|---------------------|---------------|----------------------*|
|---------------------|---------------|----------------------*|
|-8h9-9--8------------|-6h7-7--6------|-8h9-9--8----(8)\-----*|
|-9---9--9------------|-7---7--7------|-9---9--9----(9)\-----*|
|---------------------|---------------|----------------------*|
|---------------------|---------------|----------------------*|
| Q   H.                Q   H.          Q   H.
|
| W                     W               E E E  Q.   +E   E
|---------------------|---------------|----------------------*|
|---------------------|---------------|----------------------*|
|-4-------------------|-2-------------|-8h9-9--8----(8)\-----*|
|-4-------------------|-2-------------|-9---9--9----(9)\-----*|
|-2-------------------|-0-------------|----------------------*|
|-------------3b5-(3)-|---------------|----------------------*|
  H.          E   +E                    Q   H.


Duration Legend
---------------
W - whole; H - half; Q - quarter; E - 8th; S - 16th; T - 32nd; X - 64th; a - acciaccatura
+ - note tied to previous; . - note dotted; .. - note double dotted
Uncapitalized letters represent notes that are staccato (1/2 duration)
Irregular groupings are notated above the duration line
Duration letters will always appear directly above the note/fret number it represents the
duration for.  Duration letters with no fret number below them represent rests.  Multi-
bar rests are notated in the form Wxn, where n is the number of bars to rest for.  Low
melody durations appear below the staff

Tablature Legend
----------------
 h   - hammer-on
 p   - pull-off
 b   - bend
 pb  - pre-bend
 r   - bend release (if no number after the r, then release immediately)
 /\  - slide into or out of (from/to "nowhere")
 s   - legato slide
 S   - shift slide
  - natural harmonic
[n]  - artificial harmonic
n(n) - tapped harmonic
 ~   - vibrato
 tr  - trill
 T   - tap
 TP  - trem. picking
 PM  - palm muting
\n/  - tremolo bar dip; n = amount to dip
 \n  - tremolo bar down
 n/  - tremolo bar up
/n\  - tremolo bar inverted dip
 =   - hold bend; also acts as connecting device for hammers/pulls
 <>  - volume swell (louder/softer)
 x   - on rhythm slash represents muted slash
 o   - on rhythm slash represents single note slash

Misc Legend
-----------
 |  - bar
||  - double bar
||o - repeat start
o|| - repeat end
*|  - double bar (ending)
 :  - bar (freetime)
 $  - Segno
 &  - Coda
Tempo markers -  = BPM(8/16=s8/s16), where s8 = swing 8ths, s16 = swing 16ths


***************************************************************************************
* Generated using Power Tab Editor by Brad Larsen - http://powertab.guitarnetwork.org *
***************************************************************************************
comments
We did not receive enough feedback on this tab! Please rate:
print report bad tab
1 2 3 4 5
I want to post or [tab]
guest
You may want to rate the tab now too:
select rating
Please do not post tabs as comments. Select "correction" instead!