Oops, an error
Loading. Please wait.

Motorized Miracles Forever Bass Tab

ver1
ver1

Whole song

Interactive

More versions @911Tabs.com
31 views 1 this week
no commentswrite comment
1 2 3 4 5
please rate
Autoscroll
+/-
esc
set tempo
stop
WARNING: You are trying to view
                                    content from Ultimate-Guitar.com
                                    in an unauthorized application,
                                    which is prohibited.

                                    Please use an official Ultimate
                                    Guitar Tabs application for iPhone,
                                    iPad or Android to access legitimate
                                    chords, guitar, bass, and drum tabs
                                    from Ultimate-Guitar.com database.

                                    Type "ultimate guitar tabs" in Apple
                                    App Store's or Android Market's
                                    search to find the application.
#----------------------------------PLEASE NOTE---------------------------------#
#This file is the author's own work and represents their interpretation of the #
#song. You may only use this file for private study, scholarship, or research. #
#------------------------------------------------------------------------------##

                      MOTORIZED MIRACLES FOREVER (Bassline)
                            As recorded by Quinn Peck

Music by Quinn Peck
Arranged by guitarist5240

Gtr I (D A D G) - 'Untitled'
Gtr II (D A D G B E) - 'Untitled'

 Intro
  Q=144
 4/4
  Gtr I
  Wx8
|--------|
|--------|
|--------|
|--------|


  W          +H.      E E   W          +H.      E E
|----------|--------------|----------|---------------|
|-0--------|-(0)----------|----------|---------------|
|----------|--------------|----------|---------------|
|----------|----------0-4-|-5--------|-(5)------5-4--|


  W          +H.      E E   H.      E E   q  Q  E E E E
|----------|--------------|-------------|----------------|
|-0--------|-(0)----------|-------------|----------------|
|----------|--------------|-------------|----------------|
|----------|----------0-4-|-5-------4-5-|-7-------4-5-4--|


   Verse
    Q  Q  E E E E   +E  E Q  E E E E   Q  Q  E E E E   +E  E Q  E E E E
||----------------|------------------|---------------|------------------|
||o---------------|------------------|---------------|------------------|
||o----5--4-5---5-|-(5)---5--4-5---5-|----5--4-5---5-|-(5)---5--4-5-0---|
||--0-------------|-----0------------|-5-------------|-----5----------5-|


  Q  Q  E E E E   +E  E Q  E E E E   Q  Q  E E E E   +E  E E E E E E E
|---------------|------------------|---------------|---------------------||
|---------------|------------------|---------------|-------------7------o||
|----5--4-5---5-|-(5)---5--4-5---5-|----5--4-5---5-|-(5)---5-4-5---5-0--o||
|-0-------------|-----0------------|-5-------------|-----5---------------||


 Chorus
  E E E E E E E E   E E E E E E E E   E E E E E E E E   E E E E E E E E
|-----------------|-----------------|-----------------|------------------|
|-----------------|-----------------|-----------------|------------------|
|-----------------|-----------------|-----------------|------------------|
|-0-0-0-0-0-0-0-0-|-0-0-0-0-0-0-4-4-|-5-5-5-5-5-5-5-5-|-5-5-5-5-5-5-4-0--|


  E E E E E E E E   E E E E E E E E
|-----------------|-----------------|
|-----------------|-----------------|
|-5-5-5-5-5-5-5-5-|-5-5-5-5-5-5-9-9-|
|-----------------|-----------------|


   E  E  E  E  E  E  E  E    E  E  E  E  E  E  E  E
|-------------------------|--------------------------|
|-------------------------|-------------------11-11--|
|-10-10-10-10-10-10-10-10-|-10-10-10-10-10-10--------|
|-------------------------|--------------------------|


   E  E  E  E  E  E  E  E    E  E  E  E  E  E  E  E
|-------------------------|-------------------------|
|-12-12-12-11-11-11-------|-------------------11-11-|
|-------------------12-12-|----------12-12-12-------|
|-------------------------|-12-12-12----------------|


   E  E  E  E  E  E  E  E    E  E  E  E  E  E  E  E
|-------------------------|--------------------------|
|-12-12-12-11-11-11-------|--------------------------|
|-------------------12-12-|-12-12-12-12-12-12-12-12--|
|-------------------------|--------------------------|


   E  E  E  E  E  E  E  E    E  E  E  E  E  E  E  E
|-------------------------|-------------------------|
|-12-12-12-11-11-11-------|-------------------11-11-|
|-------------------12-12-|----------12-12-12-------|
|-------------------------|-12-12-12----------------|


   E  E  E  E  E  E  E  E    E  E  E  E  E  E E E
|-------------------------|------------------------|
|-------------------------|------------------------|
|-10-10-10-10-10-10-10-10-|-10-10-10-10-10-10-7-7--|
|-------------------------|------------------------|


 Guitar Break
  Gtr I
  W          +H.      E E   W          +H.      E E
|----------|--------------|----------|---------------|
|-0--------|-(0)----------|----------|---------------|
|----------|--------------|----------|---------------|
|----------|----------0-4-|-5--------|-(5)------5-4--|
|
| Gtr II
| <                         <
| W          +H.      Q     W          +H.      E E
|----------|--------------|----------|---------------|
|----------|--------------|----------|---------------|
|----------|--------------|----------|---------------|
|-0--------|-(0)----------|----------|---------------|
|----------|--------------|----------|---------------|
|----------|----------4---|-5--------|-(5)------5-4--|


  W          +H.      E     E   H.       E      E   q   Q  E E E E
|----------|------------------|-------------------|-----------------|
|-0--------|-(0)--------------|-------------------|-----------------|
|----------|------------------|-------------------|-----------------|
|----------|----------0-----4-|-5--------4------5-|-7--------4-5-4--|
|
| <                             <
| W          +H.      S +S  E   H.      +S  +S  E   H.         E E
|----------|------------------|-------------------|-----------------|
|----------|------------------|-------------------|-----------------|
|----------|------------------|-------------------|-----------------|
|----------|------------------|-------------------|-----------------|
|----------|----------0-(0)s2-|-2-------(2)-(2)s0-|-0---------------|
|-0--------|-(0)--------------|-------------------|------------4-2--|


   Verse
    Q  Q  E E E E   +E  E Q  E E E E   Q  Q  E E E E   +E  E Q  E E E E
||----------------|------------------|---------------|------------------|
||o---------------|------------------|---------------|------------------|
||o----5--4-5---5-|-(5)---5--4-5---5-|----5--4-5---5-|-(5)---5--4-5-0---|
||--0-------------|-----0------------|-5-------------|-----5----------5-|
|
|   <                                  <
|   W               +H.          Q     W               +H.          E E
||----------------|------------------|---------------|------------------|
||o---------------|------------------|---------------|------------------|
||----------------|------------------|---------------|------------------|
||--0-------------|-(0)--------------|---------------|------------------|
||o---------------|------------------|---------------|------------------|
||----------------|--------------4---|-5-------------|-(5)----------5-4-|


  Q  Q  E E E E   +E  E Q  E E E     E
|---------------|----------------------|
|---------------|----------------------|
|----5--4-5---5-|-(5)---5--4-5-------5-|
|-0-------------|-----0----------------|
|
| <
| W               +H.          S +S  E
|---------------|----------------------|
|---------------|----------------------|
|---------------|----------------------|
|---------------|----------------------|
|---------------|--------------0-(0)s2-|
|-0-------------|-(0)------------------|


  Q   Q  E E  E      E   +E  E E E E E E E
|----------------------|---------------------||
|----------------------|-------------7------o||
|-----5--4-5---------5-|-(5)---5-4-5---5-0--o||
|-5--------------------|-----5---------------||
|
| <
| H.         +S  +S  E    H.           E E
|----------------------|---------------------||
|----------------------|--------------------o||
|----------------------|---------------------||
|----------------------|---------------------||
|-2----------(2)-(2)s0-|--0-----------------o||
|----------------------|---------------4-2---||


 Chorus
  E E E E E E E E    E  E E E E E E E   E E E E E E E E    E  E E E E E E E
|-----------------|-------------------|-----------------|--------------------|
|-----------------|-------------------|-----------------|--------------------|
|-----------------|-------------------|-----------------|--------------------|
|-0-0-0-0-0-0-0-0-|--0--0-0-0-0-0-4-4-|-5-5-5-5-5-5-5-5-|--5--5-5-5-5-5-4-0--|
|
| <                                     <
| W                 +H.           Q     W                 +H.           Q
|-----------------|-------------------|-----------------|--------------------|
|-----------------|-------------------|-----------------|--------------------|
|-----------------|-------------------|-----------------|--------------------|
|-----------------|-------------------|-----------------|--------------------|
|-----------------|---------------0---|-----------------|--------------------|
|-0---------------|-(0)---------------|-5---------------|-(5)-----------4----|


  E E E E E E E E    E  E E E E E E E
|-----------------|-------------------|
|-----------------|-------------------|
|-5-5-5-5-5-5-5-5-|--5--5-5-5-5-5-9-9-|
|-----------------|-------------------|
|
| <
| W                 +H.           Q
|-----------------|-------------------|
|-----------------|-------------------|
|-----------------|-------------------|
|-----------------|-------------------|
|-----------------|---------------0---|
|-0---------------|-(0)---------------|


   E  E  E  E  E  E  E  E    E   E  E  E  E  E  E  E
|-------------------------|---------------------------|
|-------------------------|--------------------11-11--|
|-10-10-10-10-10-10-10-10-|-10--10-10-10-10-10--------|
|-------------------------|---------------------------|
|
|  <
|  W                        +H.                 E  E
|-------------------------|---------------------------|
|-------------------------|---------------------------|
|-------------------------|---------------------------|
|-------------------------|---------------------------|
|-------------------------|---------------------------|
|--5----------------------|-(5)-----------------4--0--|


   E  E  E  E  E  E  E  E    E   E  E  E  E  E  E  E
|-------------------------|--------------------------|
|-12-12-12-11-11-11-------|--------------------11-11-|
|-------------------12-12-|-----------12-12-12-------|
|-------------------------|-12--12-12----------------|
|
|  <
|  W                        +H.                 Q
|-------------------------|--------------------------|
|-------------------------|--------------------------|
|-------------------------|--------------------------|
|--0----------------------|-(0)-----------------4----|
|-------------------------|--------------------------|
|-------------------------|--------------------------|


   E  E  E  E  E  E  E  E    E   E  E  E  E   E  E  E
|-------------------------|----------------------------|
|-12-12-12-11-11-11-------|----------------------------|
|-------------------12-12-|-12--12-12-12-12--12-12-12--|
|-------------------------|----------------------------|
|
|  <
|  W                        +H           +E   E  E  E
|-------------------------|----------------------------|
|-------------------------|----------------------------|
|-------------------------|----------------------------|
|--5----------------------|-(5)----------(5)-------12--|
|-------------------------|------------------10-12-----|
|-------------------------|----------------------------|


   E  E  E  E  E  E  E  E     E   E  E  E  E  E  E  E
|-------------------------|---------------------------|
|-12-12-12-11-11-11-------|---------------------11-11-|
|-------------------12-12-|------------12-12-12-------|
|-------------------------|--12--12-12----------------|
|
|  <
|  W                         +H.                 Q
|-------------------------|---------------------------|
|-------------------------|---------------------------|
|-------------------------|---------------------------|
|-12----------------------|-(12)----------------------|
|-------------------------|---------------------12----|
|-------------------------|---------------------------|


   E  E  E  E  E  E  E  E     E   E  E  E  E  E E E
|-------------------------|--------------------------|
|-------------------------|--------------------------|
|-10-10-10-10-10-10-10-10-|--10--10-10-10-10-10-7-7--|
|-------------------------|--------------------------|
|
|  <
|  W                         +H.                E E
|-------------------------|--------------------------|
|-------------------------|--------------------------|
|-------------------------|--------------------------|
|-------------------------|--------------------------|
|-------------------------|--------------------------|
|-12----------------------|-(12)----------------5h7--|


 Guitar Break
  W          +H.      E E   W          +H.      E E
|----------|--------------|----------|---------------|
|-0--------|-(0)----------|----------|---------------|
|----------|--------------|----------|---------------|
|----------|----------0-4-|-5--------|-(5)------5-4--|
|
| <                         <
| W          +H.      Q     W          +H.      E E
|----------|--------------|----------|---------------|
|----------|--------------|----------|---------------|
|----------|--------------|----------|---------------|
|-0--------|-(0)----------|----------|---------------|
|----------|--------------|----------|---------------|
|----------|----------4---|-5--------|-(5)------5-4--|


  W          +H.      E     E   H.       E      E   q   Q  E E E E
|----------|------------------|-------------------|-----------------|
|-0--------|-(0)--------------|-------------------|-----------------|
|----------|------------------|-------------------|-----------------|
|----------|----------0-----4-|-5--------4------5-|-7--------4-5-4--|
|
| <                             <
| W          +H.      S +S  E   H.      +S  +S  E   H.         E E
|----------|------------------|-------------------|-----------------|
|----------|------------------|-------------------|-----------------|
|----------|------------------|-------------------|-----------------|
|----------|------------------|-------------------|-----------------|
|----------|----------0-(0)s2-|-2-------(2)-(2)s0-|-0---------------|
|-0--------|-(0)--------------|-------------------|------------4-2--|


   Verse
    Q  Q  E E E E   +E  E Q  E E E E   Q  Q  E E E E   +E  E Q  E E E E
||----------------|------------------|---------------|------------------|
||o---------------|------------------|---------------|------------------|
||o----5--4-5---5-|-(5)---5--4-5---5-|----5--4-5---5-|-(5)---5--4-5-0---|
||--0-------------|-----0------------|-5-------------|-----5----------5-|
|
|   <                                  <
|   W               +H.          Q     W               +H.          E E
||----------------|------------------|---------------|------------------|
||o---------------|------------------|---------------|------------------|
||----------------|------------------|---------------|------------------|
||--0-------------|-(0)--------------|---------------|------------------|
||o---------------|------------------|---------------|------------------|
||----------------|--------------4---|-5-------------|-(5)----------5-4-|


  Q  Q  E E E E   +E  E Q  E E E     E
|---------------|----------------------|
|---------------|----------------------|
|----5--4-5---5-|-(5)---5--4-5-------5-|
|-0-------------|-----0----------------|
|
| <
| W               +H.          S +S  E
|---------------|----------------------|
|---------------|----------------------|
|---------------|----------------------|
|---------------|----------------------|
|---------------|--------------0-(0)s2-|
|-0-------------|-(0)------------------|


  Q   Q  E E  E      E   +E  E E E E E E E
|----------------------|---------------------||
|----------------------|-------------7------o||
|-----5--4-5---------5-|-(5)---5-4-5---5-0--o||
|-5--------------------|-----5---------------||
|
| <
| H.         +S  +S  E    H.           E E
|----------------------|---------------------||
|----------------------|--------------------o||
|----------------------|---------------------||
|----------------------|---------------------||
|-2----------(2)-(2)s0-|--0-----------------o||
|----------------------|---------------4-2---||


 Guitar Solo
  E E E E E E E E    E  E E E E E E E   E E E E E E E E    E  E E E E E E E
|-----------------|-------------------|-----------------|--------------------|
|-----------------|-------------------|-----------------|--------------------|
|-----------------|-------------------|-----------------|--------------------|
|-0-0-0-0-0-0-0-0-|--0--0-0-0-0-0-4-4-|-5-5-5-5-5-5-5-5-|--5--5-5-5-5-5-4-0--|
|
| <                                     <
| W                 +H.           Q     W                 +H.           Q
|-----------------|-------------------|-----------------|--------------------|
|-----------------|-------------------|-----------------|--------------------|
|-----------------|-------------------|-----------------|--------------------|
|-----------------|-------------------|-----------------|--------------------|
|-----------------|---------------0---|-----------------|--------------------|
|-0---------------|-(0)---------------|-5---------------|-(5)-----------4----|


  E E E E E E E E    E  E E E E E E E
|-----------------|-------------------|
|-----------------|-------------------|
|-5-5-5-5-5-5-5-5-|--5--5-5-5-5-5-9-9-|
|-----------------|-------------------|
|
| <
| W                 +H.           Q
|-----------------|-------------------|
|-----------------|-------------------|
|-----------------|-------------------|
|-----------------|-------------------|
|-----------------|---------------0---|
|-0---------------|-(0)---------------|


   E  E  E  E  E  E  E  E    E   E  E  E  E  E  E  E
|-------------------------|---------------------------|
|-------------------------|--------------------11-11--|
|-10-10-10-10-10-10-10-10-|-10--10-10-10-10-10--------|
|-------------------------|---------------------------|
|
|  <
|  W                        +H.                 E  E
|-------------------------|---------------------------|
|-------------------------|---------------------------|
|-------------------------|---------------------------|
|-------------------------|---------------------------|
|-------------------------|---------------------------|
|--5----------------------|-(5)-----------------4--0--|


   E  E  E  E  E  E  E  E    E   E  E  E  E  E  E  E
|-------------------------|--------------------------|
|-12-12-12-11-11-11-------|--------------------11-11-|
|-------------------12-12-|-----------12-12-12-------|
|-------------------------|-12--12-12----------------|
|
|  <
|  W                        +H.                 Q
|-------------------------|--------------------------|
|-------------------------|--------------------------|
|-------------------------|--------------------------|
|--0----------------------|-(0)-----------------4----|
|-------------------------|--------------------------|
|-------------------------|--------------------------|


   E  E  E  E  E  E  E  E    E   E  E  E  E   E  E  E
|-------------------------|----------------------------|
|-12-12-12-11-11-11-------|----------------------------|
|-------------------12-12-|-12--12-12-12-12--12-12-12--|
|-------------------------|----------------------------|
|
|  <
|  W                        +H           +E   E  E  E
|-------------------------|----------------------------|
|-------------------------|----------------------------|
|-------------------------|----------------------------|
|--5----------------------|-(5)----------(5)-------12--|
|-------------------------|------------------10-12-----|
|-------------------------|----------------------------|


   E  E  E  E  E  E  E  E     E   E  E  E  E  E  E  E
|-------------------------|---------------------------|
|-12-12-12-11-11-11-------|---------------------11-11-|
|-------------------12-12-|------------12-12-12-------|
|-------------------------|--12--12-12----------------|
|
|  <
|  W                         +H.                 Q
|-------------------------|---------------------------|
|-------------------------|---------------------------|
|-------------------------|---------------------------|
|-12----------------------|-(12)----------------------|
|-------------------------|---------------------12----|
|-------------------------|---------------------------|


   E  E  E  E  E  E  E  E     E   E  E  E  E  E E E
|-------------------------|--------------------------|
|-------------------------|--------------------------|
|-10-10-10-10-10-10-10-10-|--10--10-10-10-10-10-7-7--|
|-------------------------|--------------------------|
|
|  <
|  W                         +H.                E E
|-------------------------|--------------------------|
|-------------------------|--------------------------|
|-------------------------|--------------------------|
|-------------------------|--------------------------|
|-------------------------|--------------------------|
|-12----------------------|-(12)----------------5h7--|


   Verse
    Q  Q  E E E E   +E  E Q  E E E E   Q  Q  E E E E   +E  E Q  E E E E
||----------------|------------------|---------------|------------------|
||o---------------|------------------|---------------|------------------|
||o----5--4-5---5-|-(5)---5--4-5---5-|----5--4-5---5-|-(5)---5--4-5-0---|
||--0-------------|-----0------------|-5-------------|-----5----------5-|
|
|   <                                  <
|   W               +H.          Q     W               +H.          E E
||----------------|------------------|---------------|------------------|
||o---------------|------------------|---------------|------------------|
||----------------|------------------|---------------|------------------|
||--0-------------|-(0)--------------|---------------|------------------|
||o---------------|------------------|---------------|------------------|
||----------------|--------------4---|-5-------------|-(5)----------5-4-|


  Q  Q  E E E E   +E  E Q  E E E     E
|---------------|----------------------|
|---------------|----------------------|
|----5--4-5---5-|-(5)---5--4-5-------5-|
|-0-------------|-----0----------------|
|
| <
| W               +H.          S +S  E
|---------------|----------------------|
|---------------|----------------------|
|---------------|----------------------|
|---------------|----------------------|
|---------------|--------------0-(0)s2-|
|-0-------------|-(0)------------------|


  Q   Q  E E  E      E   +E  E E E E E E E
|----------------------|---------------------||
|----------------------|-------------7------o||
|-----5--4-5---------5-|-(5)---5-4-5---5-0--o||
|-5--------------------|-----5---------------||
|
| <
| H.         +S  +S  E    H.           E E
|----------------------|---------------------||
|----------------------|--------------------o||
|----------------------|---------------------||
|----------------------|---------------------||
|-2----------(2)-(2)s0-|--0-----------------o||
|----------------------|---------------4-2---||


 Outro
  Q  Q  E E E E   +E  E Q  E E E E   Q  Q  E E E E   +E  E Q  E E E E
|---------------|------------------|---------------|-------------------|
|---------------|------------------|---------------|-------------------|
|----5--4-5---5-|-(5)---5--4-5---5-|----5--4-5---5-|-(5)---5--4-5-0----|
|-0-------------|-----0------------|-5-------------|-----5----------5--|
|
| <                                  <
| W               +H.          Q     W               +H.          E E
|---------------|------------------|---------------|-------------------|
|---------------|------------------|---------------|-------------------|
|---------------|------------------|---------------|-------------------|
|-0-------------|-(0)--------------|---------------|-------------------|
|---------------|------------------|---------------|-------------------|
|---------------|--------------4---|-5-------------|-(5)----------5-4--|


  Q  Q  E E E E   +E  E Q  E E E     E
|---------------|----------------------|
|---------------|----------------------|
|----5--4-5---5-|-(5)---5--4-5-------5-|
|-0-------------|-----0----------------|
|
| <
| W               +H.          S +S  E
|---------------|----------------------|
|---------------|----------------------|
|---------------|----------------------|
|---------------|----------------------|
|---------------|--------------0-(0)s2-|
|-0-------------|-(0)------------------|


  H.=H
  Q   Q  E E  E      E   +E  E Q  E E E E
|----------------------|-------------------|
|----------------------|-------------------|
|-----5--4-5---------5-|-(5)---5--4-5-0----|
|-5--------------------|-----5----------2--|
|
| <
| H.         +S  +S  E    H.          E E
|----------------------|-------------------|
|----------------------|-------------------|
|----------------------|-------------------|
|----------------------|-------------------|
|-2----------(2)-(2)s0-|--0----------------|
|----------------------|--------------4-2--|


  Q=72
  W          +W           +W
|----------|------------|--------*|
|----------|------------|--------*|
|----------|------------|--------*|
|-0--------|-(0)--------|-(0)----*|
|
| <           >
| W          +W           +W
|----------|------------|--------*|
|----------|------------|--------*|
|----------|------------|--------*|
|-0--------|-(0)--------|-(0)----*|
|----------|------------|--------*|
|-0--------|-(0)--------|-(0)----*|


Duration Legend
---------------
W - whole; H - half; Q - quarter; E - 8th; S - 16th; T - 32nd; X - 64th; a - acciaccatura
+ - note tied to previous; . - note dotted; .. - note double dotted
Uncapitalized letters represent notes that are staccato (1/2 duration)
Irregular groupings are notated above the duration line
Duration letters will always appear directly above the note/fret number it represents the
duration for.  Duration letters with no fret number below them represent rests.  Multi-
bar rests are notated in the form Wxn, where n is the number of bars to rest for.  Low
melody durations appear below the staff

Tablature Legend
----------------
 h   - hammer-on
 p   - pull-off
 b   - bend
 pb  - pre-bend
 r   - bend release (if no number after the r, then release immediately)
 /\  - slide into or out of (from/to "nowhere")
 s   - legato slide
 S   - shift slide
<n>  - natural harmonic
[n]  - artificial harmonic
n(n) - tapped harmonic
 ~   - vibrato
 tr  - trill
 T   - tap
 TP  - trem. picking
 PM  - palm muting
\n/  - tremolo bar dip; n = amount to dip
 \n  - tremolo bar down
 n/  - tremolo bar up
/n\  - tremolo bar inverted dip
 =   - hold bend; also acts as connecting device for hammers/pulls
 <>  - volume swell (louder/softer)
 x   - on rhythm slash represents muted slash
 o   - on rhythm slash represents single note slash

Misc Legend
-----------
 |  - bar
||  - double bar
||o - repeat start
o|| - repeat end
*|  - double bar (ending)
 :  - bar (freetime)
 $  - Segno
 &  - Coda
Tempo markers - <E/E./Q/Q./H/H.> = BPM(8/16=s8/s16), where s8 = swing 8ths, s16 = swing 16ths


***************************************************************************************
* Generated using Power Tab Editor by Brad Larsen - http://powertab.guitarnetwork.org *
***************************************************************************************
comments
We did not receive enough feedback on this tab! Please rate:
print report bad tab
1 2 3 4 5
I want to post or [tab]
guest
You may want to rate the tab now too:
select rating
Please do not post tabs as comments. Select "correction" instead!