Oops, an error
Loading. Please wait.

Out In The Cold Tab

ver1
ver1

Whole song

Interactive

More versions @911Tabs.com
117 views 1 this week
no commentswrite comment
1 2 3 4 5
please rate
Autoscroll
+/-
esc
set tempo
stop
Hey! There's an official Ultimate Guitar app which is ideal
for learning songs when you're away from computer. Get the app
WARNING: You are trying to view
                                    content from Ultimate-Guitar.com
                                    in an unauthorized application,
                                    which is prohibited.

                                    Please use an official Ultimate
                                    Guitar Tabs application for iPhone,
                                    iPad or Android to access legitimate
                                    chords, guitar, bass, and drum tabs
                                    from Ultimate-Guitar.com database.

                                    Type "ultimate guitar tabs" in Apple
                                    App Store's or Android Market's
                                    search to find the application.
#----------------------------------PLEASE NOTE---------------------------------#
#This file is the author's own work and represents their interpretation of the #
#song. You may only use this file for private study, scholarship, or research. #
#------------------------------------------------------------------------------##

                                 OUT IN THE COLD
                            As recorded by Quinn Peck

Music by Quinn Peck
Arranged by Quinn Peck
Transcribed by guitarist5240

Gtr I (E A D G B E) - 'Untitled'
Gtr II (E A D G B E) - 'Untitled'
Gtr III (E A D G B E) - 'Untitled'
Gtr IV (E A D G B E) - 'Untitled'
Gtr V (E A D G B E) - 'Untitled'

   Intro
    Q=120
    N.C.
   4/4
    Gtrs I, V
    E E E E +E  E E E   E E E E +E  E E E
||--------------------|-------------------|
||o-------0-(0)---0---|-------0-(0)---0---|
||------5-------5---5-|-----5-------5---5-|
||----3---------------|---3---------------|
||o-0-----------------|-0-----------------|
||--------------------|-------------------|


  E E E E +E  E E E   E E E E +E  E E E
|-------------------|-------7-(7)--------||
|-------0-(0)---0---|-------0-(0)---0---o||
|-----5-------5---5-|-----5-------5---5--||
|---7---------------|---7----------------||
|-0-----------------|-0-----------------o||
|-------------------|--------------------||


  E E E E E E E E   E E E E E E E E   E E E E E E E E   E E E E E E E E
|-----5-----3-----|-0-----3-----3---|-----5-----3-----|-7-----8-----7---|
|-------0-----0---|---0-----0-----0-|-------0-----0---|---0-----0-----0-|
|---5-----5-----5-|-----5-----5-----|---5-----5-----5-|-----0-----0-----|
|-----------------|-----------------|-----------------|-----------------|
|-0---------------|-----------------|-0---------------|-----------------|
|-----------------|-----------------|-----------------|-----------------|


  E E E E E E E E   E E E E E E E E   E E E E E E E E   E E E E E E E E
|-----5-----3-----|-0-----3-----3---|-----5-----3-----|-0-----0-----0---|
|-------0-----0---|---0-----0-----0-|-------0-----0---|---0-----0-----0-|
|---5-----5-----5-|-----5-----5-----|---5-----5-----5-|-----2-----2-----|
|-----------------|-----------------|-----------------|-----------------|
|-0---------------|-----------------|-0---------------|-----------------|
|-----------------|-----------------|-----------------|-----------------|


   Verse
    Q=120
    C      Bm    Am    Bm    C      Am    F5    Am    F5    C/E
     E E E E E E E E   E E E  E E E E E   E E E E E E E E   E E E E E E E E
||-------------------|------------------|-----------------|-------------------||
||o------------------|------------------|-----------------|------------------o||
||---9-----7-----5---|-7------9-----5---|-5-----5-----5---|-5-----5-----5-----||
||--10-----9-----7---|-9-----10-----7---|-3-----7-----3---|-2-----2-----2-----||
||o----0-0---0-0---0-|---0-0----0-0---0-|---0-0---0-0---0-|---0-0---0-0---0--o||
||-------------------|------------------|-----------------|-------------------||


  C      Bm    Bm    Dm     C      Bm    F5    Am    F5    C/E
   E E E E E E E E    E E E  E E E E E   E E E E E E E E   E E E E E E E E
|------------------|-------------------|-----------------|-----------------|
|------------------|-------------------|-----------------|-----------------|
|--9-----7-----7---|-10------9-----7---|-5-----5-----5---|-5-----5-----5---|
|-10-----9-----9---|-12-----10-----9---|-3-----7-----3---|-2-----2-----2---|
|----0-0---0-0---0-|----0-0----0-0---0-|---0-0---0-0---0-|---0-0---0-0---0-|
|------------------|-------------------|-----------------|-----------------|


  C      Bm    Am    Bm    C      Am    F5    Am    F5    C/E
   E E E E E E E E   E E E  E E E E E   E E E E E E E E   E E E E E E E E
|------------------|------------------|-----------------|-----------------|
|------------------|------------------|-----------------|-----------------|
|--9-----7-----5---|-7------9-----5---|-5-----5-----5---|-5-----5-----5---|
|-10-----9-----7---|-9-----10-----7---|-3-----7-----3---|-2-----2-----2---|
|----0-0---0-0---0-|---0-0----0-0---0-|---0-0---0-0---0-|---0-0---0-0---0-|
|------------------|------------------|-----------------|-----------------|


   Chorus
    C/A               Esus4/A
    E E E E E E E E   E E E E E E E E
||------------------|-----------------|
||o-----------------|-----------------|
||------5-----5---5-|-----4-----4---4-|
||----2-----2-------|---2-----2-------|
||o-0-----0-----0---|-0-----0-----0---|
||------------------|-----------------|


  Emadd11/A         C      Dadd11 G/B
  E E E E E E E E    E E E  E E E E E  a
|-----------------|------------------------||
|-----------------|-----------------------o||
|-----0-----0---0-|------0------0---0-(0)--||
|---2-----2-------|----2------4------------||
|-0-----0-----0---|-/3-----/5-----2-------o||
|-----------------|------------------------||


   Verse
    C      Bm    Am    Bm    C      Am    F5    Am    F5    C/E
     E E E E E E E E   E E E  E E E E E   E E E E E E E E   E E E E E E E E
||-------------------|------------------|-----------------|-------------------||
||o------------------|------------------|-----------------|------------------o||
||---9-----7-----5---|-7------9-----5---|-5-----5-----5---|-5-----5-----5-----||
||--10-----9-----7---|-9-----10-----7---|-3-----7-----3---|-2-----2-----2-----||
||o----0-0---0-0---0-|---0-0----0-0---0-|---0-0---0-0---0-|---0-0---0-0---0--o||
||-------------------|------------------|-----------------|-------------------||


  C      Bm                Am    Bm    C            Am
   E E E E E E             E E   E E E  E   E    E    E    E
|------------------------------|------------------------------|
|------------------------------|------------------------------|
|--9-----7-----------------5---|-7------9-------------5-------|
|-10-----9-----------------7---|-9-----10-------------7-------|
|----0-0---0-0---------------0-|---0-0------0----0---------0--|
|------------------------------|------------------------------|
|
| Gtr III
|  Q   E Q   S  a   S   a  E E   Q   E  E  +E    E    E    E
|------------------------------|------------------------------|
|------------------------------|------------------------------|
|--9-----7---7-(7)s=9--(9)s7-5-|-7------9--(9)--(9)--(9)--(9)-|
|-10-----9---9-(9)s10-(10)s9-7-|-9-----10-(10)-(10)-(10)-(10)-|
|------0-----------------------|-----0-----------0----0----0--|
|------------------------------|------------------------------|


  F5    Am                F5    C/E
  E E E E E E             E E   E E E E  E   E   E   E
|-----------------------------|-------------------------|
|-----------------------------|-------------------------|
|-5-----5-----------------5---|-5-----5----------5------|
|-3-----7-----------------3---|-2-----2----------2------|
|---0-0---0-0---------------0-|---0-0----0---0-------0--|
|-----------------------------|-------------------------|
|
| Q   E Q   S  a   S   a  E E   Q   E E +E   E   E   E
|-----------------------------|-------------------------|
|-----------------------------|-------------------------|
|-5-----5---7-(7)s=9--(9)s7-5-|-5-----5-(5)-(5)-(5)-(5)-|
|-3-----7---9-(9)s10-(10)s9-7-|-7-----2-(2)-(2)-(2)-(2)-|
|-----0-----------------------|-----0--------0---0---0--|
|-----------------------------|-------------------------|


  C      Bm                Am    Bm    C            Am
   E E E E E E             E E   E E E  E   E    E    E    E
|------------------------------|------------------------------|
|------------------------------|------------------------------|
|--9-----7-----------------5---|-7------9-------------5-------|
|-10-----9-----------------7---|-9-----10-------------7-------|
|----0-0---0-0---------------0-|---0-0------0----0---------0--|
|------------------------------|------------------------------|
|
|  Q   E Q   S  a   S   a  E E   Q   E  E  +E    E    E    E
|------------------------------|------------------------------|
|------------------------------|------------------------------|
|--9-----7---7-(7)s=9--(9)s7-5-|-7------9--(9)--(9)--(9)--(9)-|
|-10-----9---9-(9)s10-(10)s9-7-|-9-----10-(10)-(10)-(10)-(10)-|
|------0-----------------------|-----0-----------0----0----0--|
|------------------------------|------------------------------|
|
| Gtr II
|  W                             W
|------------------------------|------------------------------|
|------------------------------|------------------------------|
|------------------------------|------------------------------|
|------------------------------|------------------------------|
|------------------------------|------------------------------|
|------------------------------|------------------------------|


  F5    Am                F5    C/E
  E E E E E E             E E   E E E E  E   E   E   E
|-----------------------------|-------------------------|
|-----------------------------|-------------------------|
|-5-----5-----------------5---|-5-----5----------5------|
|-3-----7-----------------3---|-2-----2----------2------|
|---0-0---0-0---------------0-|---0-0----0---0-------0--|
|-----------------------------|-------------------------|
|
| Q   E Q   S  a   S   a  E E   Q   E E +E   E   E   E
|-----------------------------|-------------------------|
|-----------------------------|-------------------------|
|-5-----5---7-(7)s=9--(9)s7-5-|-5-----5-(5)-(5)-(5)-(5)-|
|-3-----7---9-(9)s10-(10)s9-7-|-7-----2-(2)-(2)-(2)-(2)-|
|-----0-----------------------|-----0--------0---0---0--|
|-----------------------------|-------------------------|
|
|                               <
| W                             E E E E  E   E   E   E
|-----------------------------|-------------------------|
|-----------------------------|-------------------------|
|-----------------------------|-2-2-2-2--2---2---2---2--|
|-----------------------------|-2-2-2-2--2---2---2---2--|
|-----------------------------|-0-0-0-0--0---0---0---0--|
|-----------------------------|-------------------------|


   Chorus
    C/A                    Esus4/A
    Gtrs I, II
    E  E E E E E  E  S S   E  E E E E E  E  S S
||-----------------------|----------------------|
||o----------------------|----------------------|
||--5--x-x-5-x-x--5--5-5-|-4--x-x-4-x-x--4--4-4-|
||--2--x-x-2-x-x--2--2-2-|-2--x-x-2-x-x--2--2-2-|
||o-0--x-x-0-x-x--0--0-0-|-0--x-x-0-x-x--0--0-0-|
||-----------------------|----------------------|
|
|   Gtr III
|   H.           +E  S S   H.           +E  S S
||-----------------------|----------------------|
||o----------------------|----------------------|
||-----------------------|----------------------|
||--7------------(7)-5-7-|-5------------(5)-----|
||o----------------------|------------------8-7-|
||-----------------------|----------------------|


  Emadd11/A                   A5
  E E E E  E    E  E    S S   E  E E E E E  E  S S
|---------------------------|----------------------|
|---------------------------|----------------------|
|-0-x-x-0--x----x--0----0-0-|-2--x-x-2-x-x--2--2-2-|
|-2-x-x-2--x----x--2----2-2-|-2--x-x-2-x-x--2--2-2-|
|-0-x-x-0--x----x--0----0-0-|-0--x-x-0-x-x--0--0-0-|
|---------------------------|----------------------|
|
| H       +E    E.   E.       H.           +E  S S
|---------------------------|----------------------|
|---------------------------|----------------------|
|---------------------------|----------------------|
|---------------------------|----------------------|
|-8-------(8)-/10----8------|-7------------(7)-7-7-|
|---------------------------|----------------------|


  C                               E5/B
   E E E  E  E   E   E     S  S   E  E E E E E  E  S S
|-------------------------------|----------------------|
|-------------------------------|----------------------|
|-------------------------------|----------------------|
|-10-x-x-10--x---x--10----10-10-|-9--x-x-9-x-x--9--9-9-|
|--7-x-x--7--x---x---7-----7--7-|-7--x-x-7-x-x--7--7-7-|
|--8-x-x--8--x---x---8-----8--8-|-7--x-x-7-x-x--7--7-7-|
|
|  H        +E   E.    E.         H.           +E  S S
|-------------------------------|----------------------|
|-------------------------------|----------------------|
|-------------------------------|----------------------|
|-------------------------------|----------------------|
|--7--------(7)-/8-----7--------|-5------------(5)-3-5-|
|-------------------------------|----------------------|


  Em/G                      A5
  E E E E  E  E  E    S S   E S S E E S S E E S S
|-------------------------|-------------------------||
|-------------------------|------------------------o||
|-------------------------|-------------------------||
|-5-x-x-5--x--x--5----5-5-|-7-7-7-7-7-7-7-7-7-7-7---||
|-7-x-x-7--x--x--7----7-7-|-7-7-7-7-7-7-7-7-7-7-7--o||
|-3-x-x-3--x--x--3----3-3-|-5-5-5-5-5-5-5-5-5-5-5---||
|
| H       +E  E.   E.       W
|-------------------------|-------------------------||
|-------------------------|------------------------o||
|-------------------------|-------------------------||
|-------------------------|-------------------------||
|-3-------(3)-5-----------|------------------------o||
|------------------3------|-5-----------------------||


 Bridge
  C/A                    Esus4/A
  E  E E E E E  E  S S   E  E E E E E  E  S S
|----------------------|----------------------|
|----------------------|----------------------|
|-5--x-x-5-x-x--5--5-5-|-4--x-x-4-x-x--4--4-4-|
|-2--x-x-2-x-x--2--2-2-|-2--x-x-2-x-x--2--2-2-|
|-0--x-x-0-x-x--0--0-0-|-0--x-x-0-x-x--0--0-0-|
|----------------------|----------------------|
|
| H.           +E  S S   H.           +E  S S
|----------------------|----------------------|
|----------------------|----------------------|
|----------------------|----------------------|
|-7------------(7)-5-7-|-5------------(5)-----|
|----------------------|------------------8-7-|
|----------------------|----------------------|
|
| Gtr IV
| H.           +E  S S   H.           +E  S S
|----------------------|----------------------|
|----------------------|----------------------|
|----------------------|----------------------|
|-7------------(7)-5-7-|-9------------(9)-7-9-|
|----------------------|----------------------|
|----------------------|----------------------|


  Emadd11/A                        A5
   E E E E  E    E     E     S S    E  E E E E E   E   S  S
|--------------------------------|--------------------------|
|--------------------------------|--------------------------|
|--0-x-x-0--x----x-----0-----0-0-|--2--x-x-2-x-x---2---2--2-|
|--2-x-x-2--x----x-----2-----2-2-|--2--x-x-2-x-x---2---2--2-|
|--0-x-x-0--x----x-----0-----0-0-|--0--x-x-0-x-x---0---0--0-|
|--------------------------------|--------------------------|
|
|  H       +E    E.      E.         H.            +E   S  S
|--------------------------------|--------------------------|
|--------------------------------|--------------------------|
|--------------------------------|--------------------------|
|--------------------------------|--------------------------|
|--8-------(8)-/10-------8-------|--8-------------(8)--8--8-|
|--------------------------------|--------------------------|
|
|                                   ~~~
|  H        E.      E.       E      H.            +E   S  S
|--------------------------------|--------------------------|
|--------------------------------|--------------------------|
|--------------------------------|--------------------------|
|-10-------10-------9-------10---|-12------------(12)-12-12-|
|--------------------------------|--------------------------|
|--------------------------------|--------------------------|


  C                               E5/B
   E E E  E  E   E   E     S  S    E  E     E  E  E  E  E   S  S
|-------------------------------|--------------------------------|
|-------------------------------|--------------------------------|
|-------------------------------|--------------------------------|
|-10-x-x-10--x---x--10----10-10-|--9--x-----x--9--x--x--9---9--9-|
|--7-x-x--7--x---x---7-----7--7-|--7--x-----x--7--x--x--7---7--7-|
|--8-x-x--8--x---x---8-----8--8-|--7--x-----x--7--x--x--7---7--7-|
|
|  H        +E   E.    E.          H.                  +E   S  S
|-------------------------------|--------------------------------|
|-------------------------------|--------------------------------|
|-------------------------------|--------------------------------|
|-------------------------------|--------------------------------|
|--7--------(7)-/8-----7--------|--5-------------------(5)--3--5-|
|-------------------------------|--------------------------------|
|
|                                                 ~~~
|  W                               E.    E.    E  Q.        S  S
|-------------------------------|--------------------------------|
|-------------------------------|--------------------------------|
|-------------------------------|--------------------------------|
|-14----------------------------|-15----14----12-17--------12-14-|
|-------------------------------|--------------------------------|
|-------------------------------|--------------------------------|


  Em/G                          A5
                                       <
   E E E E   E   E  E     S S    E S S E E S S E E S S
|-----------------------------|------------------------|
|-----------------------------|------------------------|
|-----------------------------|------------------------|
|--5-x-x-5---x---x--5-----5-5-|--7-7-7-7-7-7-7-7-7-7-7-|
|--7-x-x-7---x---x--7-----7-7-|--7-7-7-7-7-7-7-7-7-7-7-|
|--3-x-x-3---x---x--3-----3-3-|--5-5-5-5-5-5-5-5-5-5-5-|
|
|  H        +E   E.    E.        W
|-----------------------------|------------------------|
|-----------------------------|------------------------|
|-----------------------------|------------------------|
|-----------------------------|------------------------|
|--3--------(3)--5------------|------------------------|
|----------------------3------|--5---------------------|
|
|  ~~~~~~~~~~~~~
|  H        +E   E.    E.        W
|-----------------------------|------------------------|
|---------------13----12------|------------------------|
|-12-------(12)---------------|-14---------------------|
|-----------------------------|------------------------|
|-----------------------------|------------------------|
|-----------------------------|------------------------|


 Guitar Solo
  C/A                                     Esus4/A
  Gtrs I, II, IV
    E  E    E     E E  E     E     S  S     E  E    E     E E  E     E     S  S
|---------------------------------------|---------------------------------------|
|---------------------------------------|---------------------------------------|
|---5--x----x-----5-x--x-----5-----5--5-|---4--x----x-----4-x--x-----4-----4--4-|
|---2--x----x-----2-x--x-----2-----2--2-|---2--x----x-----2-x--x-----2-----2--2-|
|---0--x----x-----0-x--x-----0-----0--0-|---0--x----x-----0-x--x-----0-----0--0-|
|---------------------------------------|---------------------------------------|
|
|   E  S  S S  S  E E  S  S  S  S  S  S     E  S  S S  S  E E  S  S  S  S  S  S
|-(12)-x--------------------------------|-(12)-x--------------------------------|
|--13--x-12-x-12------------12-13-12----|--13--x-12-x-12------------12-13-12----|
|----------------14---12-14----------14-|----------------14---12-14----------14-|
|---------------------------------------|---------------------------------------|
|---------------------------------------|---------------------------------------|
|---------------------------------------|---------------------------------------|


  Emadd11/A                               A5
    E  E    E     E   E  E    E     S S    E     E     E     E     E     E     E     S  S
|---------------------------------------|--------------------------------------------------|
|---------------------------------------|--------------------------------------------------|
|---0--x----x-----0---x--x----0-----0-0-|--2-----x-----x-----2-----x-----x-----2-----2--2--|
|---2--x----x-----2---x--x----2-----2-2-|--2-----x-----x-----2-----x-----x-----2-----2--2--|
|---0--x----x-----0---x--x----0-----0-0-|--0-----x-----x-----0-----x-----x-----0-----0--0--|
|---------------------------------------|--------------------------------------------------|
|
|   E  S  S S  S  E   E  S  S S  S  E      S  S  S  S  S  S  S  S  S  S  S  S  S  S  S  S
|-(12)-x------------(12)-x--------------|--------------------------------------------------|
|--13--x-12-x-12-----13--x-12-x-12------|-13-12----13-12----13-12----13-12----13-12----12--|
|----------------14----------------14---|-------14-------14-------14-------14-------14-----|
|---------------------------------------|--------------------------------------------------|
|---------------------------------------|--------------------------------------------------|
|---------------------------------------|--------------------------------------------------|


  C                                E5/B
   E E    E     E  E  E  E  S  S    E E    E     E  E  E E  S  S
|--------------------------------|-------------------------------|
|--------------------------------|-------------------------------|
|--------------------------------|-------------------------------|
|-10-x----x----10--x--x-10-10-10-|--9-x----x-----9--x--x-9--9--9-|
|--7-x----x-----7--x--x--7--7--7-|--7-x----x-----7--x--x-7--7--7-|
|--8-x----x-----8--x--x--8--8--8-|--7-x----x-----7--x--x-7--7--7-|
|
| Gtr I
|  E E    E     E  E  E  E  S  S    E E    E     E  E  E E  S  S
|--------------------------------|-------------------------------|
|--------------------------------|-------------------------------|
|--------------------------------|-------------------------------|
|-10-x----x----10--x--x-10-10-10-|--9-x----x-----9--x--x-9--9--9-|
|--7-x----x-----7--x--x--7--7--7-|--7-x----x-----7--x--x-7--7--7-|
|--8-x----x-----8--x--x--8--8--8-|--7-x----x-----7--x--x-7--7--7-|
|
| Gtr III
|                  ~~~                              ~~~
|  E S  S S  S  e  Q.       S  S    E S  S S  S  e  Q.      S  S
|--------------------------------|-------------------------------|
|-15-x-13-x-13-12-12-------12-13-|-15-x-13-x-13-12-12------12-13-|
|--------------------------------|-------------------------------|
|--------------------------------|-------------------------------|
|--------------------------------|-------------------------------|
|--------------------------------|-------------------------------|


  Em/G                                              A5
                                                                 >
   E     E     E     E     E     E     E     S  S    E     S  S  E     S  S  E     S  S   E   S  S
|-----------------------------------------------|--------------------------------------------------|
|-----------------------------------------------|--------------------------------------------------|
|-----------------------------------------------|--------------------------------------------------|
|5-----x-----x-----5-----x-----x-----5-----5--5-|--7-----7--7--7-----7--7--7-----7--7---7------7--7|
|7-----x-----x-----7-----x-----x-----7-----7--7-|--7-----7--7--7-----7--7--7-----7--7---7------7--7|
|3-----x-----x-----3-----x-----x-----3-----3--3-|--5-----5--5--5-----5--5--5-----5--5---5------5--5|
|
|                                                                <
|  E     E     E     E     E     E     E     S  S    E     S  S  E     S  S  E     S  S   E   S  S
|-----------------------------------------------|--------------------------------------------------|
|-----------------------------------------------|--------------------------------------------------|
|-----------------------------------------------|--------------------------------------------------|
|5-----x-----x-----5-----x-----x-----5-----5--5-|--7-----7--7--7-----7--7--7-----7--7---7------7--7|
|7-----x-----x-----7-----x-----x-----7-----7--7-|--7-----7--7--7-----7--7--7-----7--7---7------7--7|
|3-----x-----x-----3-----x-----x-----3-----3--3-|--5-----5--5--5-----5--5--5-----5--5---5------5--5|
|
|  S  S  S  S  S  S  S  S  S  S  S  S  S  S  S  S    S  S  S  S  S  S  S  S  S  S  S  S  +S  S S S
|------------------------------------------------|-------------------------------------------------|
|15-15-15-13-13-13-12-12-15-15-15-13-13-13-12-12-|-15-15-15-13-13-13-12-12-13-12----12-(12)-12-13--|
|------------------------------------------------|-------------------------------14--------------14|
|------------------------------------------------|-------------------------------------------------|
|------------------------------------------------|-------------------------------------------------|
|------------------------------------------------|-------------------------------------------------|


  C/A                    Esus4/A
  Gtrs II, IV
   >                       >
   W                       W
|----------------------|---------------------------|
|----------------------|---------------------------|
|--5-------------------|---4-----------------------|
|--2-------------------|---2-----------------------|
|--0-------------------|---0-----------------------|
|----------------------|---------------------------|
|
| Gtrs I, V
|  E     E E E E E E E     E  E E E E E  E       E
|----------------------|---------------------------|
|----------------------|---------------------------|
|----------5-----5---5-|--------4-----4----------4-|
|--------2-----2-------|------2-----2--------------|
|--0---------0-----0---|---0------0------0---------|
|----------------------|---------------------------|
|
| Gtr III
|  ~~~~~~~~~~~~~~~~~~~~~~~~~~~~~~~~~~~~~~~~~
|  W                      +H.            S  +S   E
|----------------------|---------------------------|
|-15b17================|=(15)-----------15r(15)-13-|
|----------------------|---------------------------|
|----------------------|---------------------------|
|----------------------|---------------------------|
|----------------------|---------------------------|


  Emadd11/A          C           Dadd11       G/B
   >
   W                  W
|------------------|----------------------------------|
|------------------|----------------------------------|
|--0---------------|----------------------------------|
|--2---------------|----------------------------------|
|--0---------------|----------------------------------|
|------------------|----------------------------------|
|
|  E E E E E E E E    E  E     E  E  E  E     E     E
|------------------|----------------------------------|
|------------------|----------------------------------|
|------0-----0---0-|-----------0--------0-----------0-|
|----2-----2-------|-----2-----------4----------------|
|--0-----0-----0---|-/3----------/5-----------2-------|
|------------------|----------------------------------|
|
|  ~~
|  W                  E.    E.    E  E.    E.    a  E
|------------------|----------------------------------|
|------------------|-13----12-------13----12----12h13-|
|-14---------------|-------------14-------------------|
|------------------|----------------------------------|
|------------------|----------------------------------|
|------------------|----------------------------------|


  C/A                        Esus4/A
  Gtrs I, V
   E  E E E E E   E   E       E  E E E E E  E  E
|--------------------------|---------------------|
|--------------------------|---------------------|
|-------5-----5-------5----|-------4-----4-----4-|
|-----2-----2--------------|-----2-----2---------|
|--0------0-------0--------|--0------0------0----|
|--------------------------|---------------------|
|
| Gtr III
|  H.            +E   S  S    H.            E  E
|--------------------------|---------------------|
|--------------------------|---------------------|
|-14------------(14)-------|---------------------|
|--------------------14-14-|-14------------12-14-|
|--------------------------|---------------------|
|--------------------------|---------------------|


  Emadd11/A                       C           Dadd11       G/B
   E  E     E  E  E  E     E  E    E  E     E  E  E  E     E  E
|-------------------------------|--------------------------------|
|-------------------------------|--------------------------------|
|-----------0--------0--------0-|-----------0--------0--------0--|
|-----2-----------2-------------|-----2-----------4--------------|
|--0-----------0-----------0----|-/3----------/5-----------2-----|
|-------------------------------|--------------------------------|
|
|  E.    E.    E  E.    E.    E    E.    E.    E  E.    E.    E
|-------------------------------|--------------------------------|
|-------------------------------|--------------------------------|
|-------------------------------|----------------14--------------|
|-15----14----12-14----12----14-|-12----14----12-14----12----14--|
|-------------------------------|--------------------------------|
|-------------------------------|--------------------------------|


  C/A                          Esus4/A
   E E   E  E  E  E     E  E    E E   E  E  E  E    E     E
|----------------------------|------------------------------|
|----------------------------|------------------------------|
|--------5--------5--------5-|--------4--------4----------4-|
|----2---------2-------------|----2---------2---------------|
|--0--------0-----------0----|--0--------0----------0-------|
|----------------------------|------------------------------|
|
|  Q     Q     E  S  E.    E    Q     Q     E  S  E    S  E
|----------------------------|------------------------------|
|----------------------------|------------------------------|
|------(14)------------------|------(14)-----------------12-|
|-------14----12-12h14----12-|-------14----12-12h14---------|
|-12-------------------------|-12---------------------12----|
|----------------------------|------------------------------|


  Emadd11/A                  C        Dadd11   G/B
   E E  E E  E  E     E  E    E  E  E  E  E  E  E  E
|--------------------------|-------------------------------|
|--------------------------|-------------------------------|
|-------0-------0--------0-|--------0--------0-----0-------|
|----2-------2-------------|-----2--------4----------------|
|--0------0-----------0----|-/3-------/5--------2----------|
|--------------------------|-------------------------------|
|
|  Q    Q    E  S  E.    E    E  E  E  E  E  E  E  E   a
|--------------------------|-------------------------------|
|--------------------------|-------------------------------|
|--------------------------|-------14-------12----12-(12)--|
|------14---12-12h14----12-|----14-------14----------------|
|-12-----------------------|-12-------12-------12----------|
|--------------------------|-------------------------------|


  C/A                          Esus4/A
   E E   E  E  E  E     E  E    E E   E  E  E  E    E     E
|----------------------------|------------------------------|
|----------------------------|------------------------------|
|--------5--------5--------5-|--------4--------4----------4-|
|----2---------2-------------|----2---------2---------------|
|--0--------0-----------0----|--0--------0----------0-------|
|----------------------------|------------------------------|
|
|  Q     Q     E  S  E.    E    Q     Q     E  S  E    S  E
|----------------------------|------------------------------|
|----------------------------|------------------------------|
|------(14)------------------|------(14)-----------------12-|
|-------14----12-12h14----12-|-------14----12-12h14---------|
|-12-------------------------|-12---------------------12----|
|----------------------------|------------------------------|


  Emadd11/A                  C        Dadd11     G/B
   E E  E E  E  E     E  E    E  E  E  E   E   E  E  E
|--------------------------|---------------------------------|
|--------------------------|---------------------------------|
|-------0-------0--------0-|--------0----------0-----0-------|
|----2-------2-------------|-----2---------4-----------------|
|--0------0-----------0----|-/3-------/5----------2----------|
|--------------------------|---------------------------------|
|
|  Q    Q    E  S  E.    E    E  E  E  E  +E   E  E  E   a
|--------------------------|---------------------------------|
|--------------------------|----------13-(13)-12-------------|
|--------------------------|-------14------------14----------|
|------14---12-12h14----12-|----14------------------14-(14)--|
|-12-----------------------|-12------------------------------|
|--------------------------|---------------------------------|


   Chorus
    C/A                       Esus4/A
     E  E  E  E  E  E  E  E    E  E  E  E  E  E  E  E
||--------------------------|-------------------------|
||o-------------------------|-------------------------|
||---------5--------5-----5-|--------4--------4-----4-|
||------2--------2----------|-----2--------2----------|
||o--0--------0--------0----|--0--------0--------0----|
||--------------------------|-------------------------|
|
|    E  E  E  E  E  E  E  E    E  E  E  E  E  E  E  E
||--------------------------|-------------------------|
||o-------------------------|-------------------------|
||--------14-------12----12-|-------14-------12----12-|
||-----14-------14----------|----14-------14----------|
||o-12-------12-------12----|-12-------12-------12----|
||--------------------------|-------------------------|


  Emadd11/A                 C        Dadd11   G/B
   E  E  E  E  E  E  E  E    E  E  E  E  E  E  E  E
|-------------------------|---------------------------||
|-------------------------|--------------------------o||
|--------0--------0-----0-|--------0--------0-----0---||
|-----2--------2----------|-----2--------4------------||
|--0--------0--------0----|-/3-------/5--------2-----o||
|-------------------------|---------------------------||
|
|  E  E  E  E  E  E  E  E    E  E  E  E  E  E  E  E
|-------------------------|---------------------------||
|----------------12----13-|--------------------------o||
|-------12----------------|-------12------------------||
|----14-------14----------|----14-------16-17----12---||
|-12-------12-------12----|-15-------17-------14-----o||
|-------------------------|---------------------------||


 Interlude
  N.C.
   E E E E E E E E     E  E E E E E E E   E E E E E E E E   E E E E E E E E
|------5-----3-----|---0------3-----3---|-----5-----3-----|-7-----8-----7---|
|--------0-----0---|------0-----0-----0-|-------0-----0---|---0-----0-----0-|
|----5-----5-----5-|--------5-----5-----|---5-----5-----5-|-----0-----0-----|
|------------------|--------------------|-----------------|-----------------|
|--0---------------|--------------------|-0---------------|-----------------|
|------------------|--------------------|-----------------|-----------------|
|
|  >
|  ~~~~~~~~~~~~~~~~~~~~~~~
|  W                  +W                  W                 W
|------------------|--------------------|-----------------|-----------------|
|------------------|--------------------|-----------------|-----------------|
|------------------|--------------------|-----------------|-----------------|
|------------------|--------------------|-----------------|-----------------|
|-12---------------|-(12)---------------|-----------------|-----------------|
|------------------|--------------------|-----------------|-----------------|


  E E E E E E E E   E E E E E E E E   E E E E E E E E   E E E E E E E E
|-----5-----3-----|-0-----3-----3---|-----5-----3-----|-0-----0-----0---|
|-------0-----0---|---0-----0-----0-|-------0-----0---|---0-----0-----0-|
|---5-----5-----5-|-----5-----5-----|---5-----5-----5-|-----2-----2-----|
|-----------------|-----------------|-----------------|-----------------|
|-0---------------|-----------------|-0---------------|-----------------|
|-----------------|-----------------|-----------------|-----------------|


   Verse
    C      Bm                Am    Bm    C            Am
     E E E E E E             E E   E E E  E   E    E    E    E
||-------------------------------|------------------------------|
||o------------------------------|------------------------------|
||---9-----7-----------------5---|-7------9-------------5-------|
||--10-----9-----------------7---|-9-----10-------------7-------|
||o----0-0---0-0---------------0-|---0-0------0----0---------0--|
||-------------------------------|------------------------------|
|
|   Gtr III
|    Q   E Q   S  a   S   a  E E   Q   E  E  +E    E    E    E
||-------------------------------|------------------------------|
||o------------------------------|------------------------------|
||---9-----7---7-(7)s=9--(9)s7-5-|-7------9--(9)--(9)--(9)--(9)-|
||--10-----9---9-(9)s10-(10)s9-7-|-9-----10-(10)-(10)-(10)-(10)-|
||o------0-----------------------|-----0-----------0----0----0--|
||-------------------------------|------------------------------|


  F5    Am                F5    C/E
  E E E E E E             E E   E E E E  E   E   E   E
|-----------------------------|----------------------------||
|-----------------------------|---------------------------o||
|-5-----5-----------------5---|-5-----5----------5---------||
|-3-----7-----------------3---|-2-----2----------2---------||
|---0-0---0-0---------------0-|---0-0----0---0-------0----o||
|-----------------------------|----------------------------||
|
| Q   E Q   S  a   S   a  E E   Q   E E +E   E   E   E
|-----------------------------|----------------------------||
|-----------------------------|---------------------------o||
|-5-----5---7-(7)s=9--(9)s7-5-|-5-----5-(5)-(5)-(5)-(5)----||
|-3-----7---9-(9)s10-(10)s9-7-|-7-----2-(2)-(2)-(2)-(2)----||
|-----0-----------------------|-----0--------0---0---0----o||
|-----------------------------|----------------------------||


  C      Bm                Bm     Dm     C            Bm
   E E E E E E             E  E    E E E  E   E    E    E    E
|-------------------------------|-------------------------------|
|-------------------------------|-------------------------------|
|--9-----7-----------------7----|-10------9-------------7-------|
|-10-----9-----------------9----|-12-----10-------------9-------|
|----0-0---0-0----------------0-|----0-0------0----0---------0--|
|-------------------------------|-------------------------------|
|
|  Q   E Q   S  a   S   a  E  E    Q   E  E  +E    E    E    E
|-------------------------------|-------------------------------|
|-------------------------------|-------------------------------|
|--9-----7---7-(7)s=9--(9)s7--9-|-10------9--(9)--(9)--(9)--(9)-|
|-10-----9---9-(9)s10-(10)s9-10-|-12-----10-(10)-(10)-(10)-(10)-|
|------0------------------------|------0-----------0----0----0--|
|-------------------------------|-------------------------------|


  F5    Am                F5    C/E
  E E E E E E             E E   E E E E  E   E   E   E
|-----------------------------|-------------------------|
|-----------------------------|-------------------------|
|-5-----5-----------------5---|-5-----5----------5------|
|-3-----7-----------------3---|-2-----2----------2------|
|---0-0---0-0---------------0-|---0-0----0---0-------0--|
|-----------------------------|-------------------------|
|
| Q   E Q   S  a   S   a  E E   Q   E E +E   E   E   E
|-----------------------------|-------------------------|
|-----------------------------|-------------------------|
|-5-----5---7-(7)s=9--(9)s7-5-|-5-----5-(5)-(5)-(5)-(5)-|
|-3-----7---9-(9)s10-(10)s9-7-|-7-----2-(2)-(2)-(2)-(2)-|
|-----0-----------------------|-----0--------0---0---0--|
|-----------------------------|-------------------------|


  C      Bm                Am    Bm    C            Am
   E E E E E E             E E   E E E  E   E    E    E    E
|------------------------------|------------------------------|
|------------------------------|------------------------------|
|--9-----7-----------------5---|-7------9-------------5-------|
|-10-----9-----------------7---|-9-----10-------------7-------|
|----0-0---0-0---------------0-|---0-0------0----0---------0--|
|------------------------------|------------------------------|
|
|  Q   E Q   S  a   S   a  E E   Q   E  E  +E    E    E    E
|------------------------------|------------------------------|
|------------------------------|------------------------------|
|--9-----7---7-(7)s=9--(9)s7-5-|-7------9--(9)--(9)--(9)--(9)-|
|-10-----9---9-(9)s10-(10)s9-7-|-9-----10-(10)-(10)-(10)-(10)-|
|------0-----------------------|-----0-----------0----0----0--|
|------------------------------|------------------------------|
|
| Gtr IV
|  W                             W
|------------------------------|------------------------------|
|------------------------------|------------------------------|
|------------------------------|------------------------------|
|------------------------------|------------------------------|
|------------------------------|------------------------------|
|------------------------------|------------------------------|


  F5    Am                F5    C/E   C/E       C/E
  E E E E E E             E E   E E E E  E   E   E   E
|-----------------------------|-------------------------|
|-----------------------------|-------------------------|
|-5-----5-----------------5---|-5-----5----------5------|
|-3-----7-----------------3---|-2-----2----------2------|
|---0-0---0-0---------------0-|---0-0----0---0-------0--|
|-----------------------------|-------------------------|
|
| Q   E Q   S  a   S   a  E E   Q   E E +E   E   E   E
|-----------------------------|-------------------------|
|-----------------------------|-------------------------|
|-5-----5---7-(7)s=9--(9)s7-5-|-5-----5-(5)-(5)-(5)-(5)-|
|-3-----7---9-(9)s10-(10)s9-7-|-7-----2-(2)-(2)-(2)-(2)-|
|-----0-----------------------|-----0--------0---0---0--|
|-----------------------------|-------------------------|
|
|                               <
| W                             E E E E  E   E   E   E
|-----------------------------|-------------------------|
|-----------------------------|-------------------------|
|-----------------------------|-2-2-2-2--2---2---2---2--|
|-----------------------------|-2-2-2-2--2---2---2---2--|
|-----------------------------|-0-0-0-0--0---0---0---0--|
|-----------------------------|-------------------------|


 Out-Chorus
  C/A                    Esus4/A
  Gtrs I, II
  E  E E E E E  E  S S   E  E E E E E  E  S S
|----------------------|----------------------|
|----------------------|----------------------|
|-5--x-x-5-x-x--5--5-5-|-4--x-x-4-x-x--4--4-4-|
|-2--x-x-2-x-x--2--2-2-|-2--x-x-2-x-x--2--2-2-|
|-0--x-x-0-x-x--0--0-0-|-0--x-x-0-x-x--0--0-0-|
|----------------------|----------------------|
|
| Gtr III
| H.           +E  S S   H.           +E  S S
|----------------------|----------------------|
|----------------------|----------------------|
|----------------------|----------------------|
|-7------------(7)-5-7-|-5------------(5)-----|
|----------------------|------------------8-7-|
|----------------------|----------------------|


  Emadd11/A                   A5
  E E E E  E    E  E    S S   E  E E E E E  E  S S
|---------------------------|-----------------------|
|---------------------------|-----------------------|
|-0-x-x-0--x----x--0----0-0-|-2--x-x-2-x-x--2--2-2--|
|-2-x-x-2--x----x--2----2-2-|-2--x-x-2-x-x--2--2-2--|
|-0-x-x-0--x----x--0----0-0-|-0--x-x-0-x-x--0--0-0--|
|---------------------------|-----------------------|
|
| H       +E    E.   E.       H.           +E  S S
|---------------------------|-----------------------|
|---------------------------|-----------------------|
|---------------------------|-----------------------|
|---------------------------|-----------------------|
|-8-------(8)-/10----8------|-7------------(7)-7-7--|
|---------------------------|-----------------------|


  C                               E5/B
   E E E  E  E   E   E     S  S   E  E E E E E  E  S S
|-------------------------------|----------------------|
|-------------------------------|----------------------|
|-------------------------------|----------------------|
|-10-x-x-10--x---x--10----10-10-|-9--x-x-9-x-x--9--9-9-|
|--7-x-x--7--x---x---7-----7--7-|-7--x-x-7-x-x--7--7-7-|
|--8-x-x--8--x---x---8-----8--8-|-7--x-x-7-x-x--7--7-7-|
|
|  H        +E   E.    E.         H.           +E  S S
|-------------------------------|----------------------|
|-------------------------------|----------------------|
|-------------------------------|----------------------|
|-------------------------------|----------------------|
|--7--------(7)-/8-----7--------|-5------------(5)-3-5-|
|-------------------------------|----------------------|
|
| Gtr IV
|  W                              W
|-------------------------------|----------------------|
|-------------------------------|----------------------|
|-------------------------------|----------------------|
|-------------------------------|----------------------|
|-------------------------------|----------------------|
|-------------------------------|----------------------|


  Em/G                      A5
  E E E E  E  E  E    S S   W
|-------------------------|---------------------|
|-------------------------|---------------------|
|-------------------------|---------------------|
|-5-x-x-5--x--x--5----5-5-|-7-------------------|
|-7-x-x-7--x--x--7----7-7-|-7-------------------|
|-3-x-x-3--x--x--3----3-3-|-5-------------------|
|
|                           ~~~~~~~~~~~~~~~~~
| H       +E  E.   E.       E. E. E E.  E. E
|-------------------------|----------------8----|
|-------------------------|-------8-9--10-------|
|-------------------------|----9----------------|
|-------------------------|-7-------------------|
|-3-------(3)-5-----------|---------------------|
|------------------3------|---------------------|
|
| W                         E. E. E E.  E. E
|-------------------------|---------------------|
|-------------------------|---------------------|
|-------------------------|----------------5----|
|-------------------------|-------5-6---7-------|
|-------------------------|----7----------------|
|-------------------------|-5-------------------|


  C/A                                  Esus4/A
  E    E   E   E   E   E    E    S S   E    E   E   E   E   E    E    S S
|------------------------------------|------------------------------------|
|------------------------------------|------------------------------------|
|-5----x---x---5---x---x----5----5-5-|-4----x---x---4---x---x----4----4-4-|
|-2----x---x---2---x---x----2----2-2-|-2----x---x---2---x---x----2----2-2-|
|-0----x---x---0---x---x----0----0-0-|-0----x---x---0---x---x----0----0-0-|
|------------------------------------|------------------------------------|
|
| H.                       +E    S S   H.                       +E    S S
|------------------------------------|------------------------------------|
|------------------------------------|------------------------------------|
|------------------------------------|------------------------------------|
|-7------------------------(7)---5-7-|-5------------------------(5)-------|
|------------------------------------|--------------------------------8-7-|
|------------------------------------|------------------------------------|
|
| S  S S S S S S S S S S S  S  S E     S  S S S S S S S S S S S  S  S E
|------------------------------------|------------------------------------|
|------------------------------------|------------------------------------|
|-7--5---7-5---7-5---7-5----7--5-----|-5--4---5-4---5-4---5-4----5--4-----|
|------7-----7-----7-----7-------7---|------5-----5-----5-----5-------5---|
|------------------------------------|------------------------------------|
|------------------------------------|------------------------------------|


  Emadd11/A                               A5
  E   E   E   E    E      E    E    S S   E    E   E   E   E   E    E    S S
|---------------------------------------|---------------------------------------|
|---------------------------------------|---------------------------------------|
|-0---x---x---0----x------x----0----0-0-|-2----x---x---2---x---x----2----2-2----|
|-2---x---x---2----x------x----2----2-2-|-2----x---x---2---x---x----2----2-2----|
|-0---x---x---0----x------x----0----0-0-|-0----x---x---0---x---x----0----0-0----|
|---------------------------------------|---------------------------------------|
|
| H               +E      E.     E.       H.                       +E    S S
|---------------------------------------|---------------------------------------|
|---------------------------------------|---------------------------------------|
|---------------------------------------|---------------------------------------|
|---------------------------------------|---------------------------------------|
|-8---------------(8)---/10------8------|-7------------------------(7)---7-7----|
|---------------------------------------|---------------------------------------|
|
| S S S S S S S S  S  S   S  S S S  E     S  S S S S S S S S S S S  S  S E
|---------------------------------------|---------------------------------------|
|---------------------------------------|---------------------------------------|
|---------------------------------------|---------------------------------------|
|-7-5---7-5---7-5-----7---5----7-5------|-7--5---7-5---7-5---7-5----7--5--------|
|-----8-----8------8---------8------8---|------7-----7-----7-----7-------7------|
|---------------------------------------|---------------------------------------|


  C                                             E5/B
   E   E    E    E    E      E     E     S  S   E    E   E   E   E   E    E    S S
|---------------------------------------------|------------------------------------|
|---------------------------------------------|------------------------------------|
|---------------------------------------------|------------------------------------|
|-10---x----x---10----x------x----10----10-10-|-9----x---x---9---x---x----9----9-9-|
|--7---x----x----7----x------x-----7-----7--7-|-7----x---x---7---x---x----7----7-7-|
|--8---x----x----8----x------x-----8-----8--8-|-7----x---x---7---x---x----7----7-7-|
|
|  H                 +E      E.      E.         H.                       +E    S S
|---------------------------------------------|------------------------------------|
|---------------------------------------------|------------------------------------|
|---------------------------------------------|------------------------------------|
|---------------------------------------------|------------------------------------|
|--7-----------------(7)----/8-------7--------|-5------------------------(5)---3-5-|
|---------------------------------------------|------------------------------------|
|
|  S S S  S S S  S S  S   S  S  S  S S   E      S  S S S S S S S S S S S  S  S E
|---------------------------------------------|------------------------------------|
|---------------------------------------------|------------------------------------|
|---------------------------------------------|------------------------------------|
|-10-7---10-7---10-7-----10--7----10-7--------|-9--7---9-7---9-7---9-7----9--7-----|
|------7------7-------7---------7--------7----|------7-----7-----7-----7-------7---|
|---------------------------------------------|------------------------------------|


  Em/G                                  A5
  E   E   E   E    E    E    E    S S   W
|-------------------------------------|--------------------|
|-------------------------------------|--------------------|
|-------------------------------------|--------------------|
|-5---x---x---5----x----x----5----5-5-|-7------------------|
|-7---x---x---7----x----x----7----7-7-|-7------------------|
|-3---x---x---3----x----x----3----3-3-|-5------------------|
|
|                                       ~~~~~~~~~~~~~~~~~
| H               +E    E.     E.       E. E. E E.  E. E
|-------------------------------------|--------------------|
|-------------------------------------|--------------------|
|-------------------------------------|----------------5---|
|-------------------------------------|-------5-6---7------|
|-3---------------(3)---5-------------|----7---------------|
|------------------------------3------|-5------------------|
|
|                                       ~~~~~~~~~~~~~~~~~
| S S S S S S S S  S  S S  S S S  E     E. E. E E.  E. E
|-------------------------------------|----------------8---|
|-------------------------------------|-------8-9--10------|
|-------------------------------------|----9---------------|
|-7-5---7-5---7-5-----7-5----7-5------|-7------------------|
|-----7-----7------7-------7------7---|--------------------|
|-------------------------------------|--------------------|


  C/A                                  Esus4/A
  E    E   E   E   E   E    E    S S   E    E   E   E   E   E    E    S S
|------------------------------------|------------------------------------|
|------------------------------------|------------------------------------|
|-5----x---x---5---x---x----5----5-5-|-4----x---x---4---x---x----4----4-4-|
|-2----x---x---2---x---x----2----2-2-|-2----x---x---2---x---x----2----2-2-|
|-0----x---x---0---x---x----0----0-0-|-0----x---x---0---x---x----0----0-0-|
|------------------------------------|------------------------------------|
|
| H.                       +E    S S   H.                       +E    S S
|------------------------------------|------------------------------------|
|------------------------------------|------------------------------------|
|------------------------------------|------------------------------------|
|-7------------------------(7)---5-7-|-5------------------------(5)-------|
|------------------------------------|--------------------------------8-7-|
|------------------------------------|------------------------------------|
|
| Gtr IV
| S  S S S S S S S S S S S  S  S E     S  S S S S S S S S S S S  S  S E
|------------------------------------|------------------------------------|
|------------------------------------|------------------------------------|
|-7--5---7-5---7-5---7-5----7--5-----|-5--4---5-4---5-4---5-4----5--4-----|
|------7-----7-----7-----7-------7---|------5-----5-----5-----5-------5---|
|------------------------------------|------------------------------------|
|------------------------------------|------------------------------------|


  Emadd11/A                               A5
  E   E   E   E    E      E    E    S S   E    E   E   E   E   E    E    S S
|---------------------------------------|---------------------------------------|
|---------------------------------------|---------------------------------------|
|-0---x---x---0----x------x----0----0-0-|-2----x---x---2---x---x----2----2-2----|
|-2---x---x---2----x------x----2----2-2-|-2----x---x---2---x---x----2----2-2----|
|-0---x---x---0----x------x----0----0-0-|-0----x---x---0---x---x----0----0-0----|
|---------------------------------------|---------------------------------------|
|
| H               +E      E.     E.       H.                       +E    S S
|---------------------------------------|---------------------------------------|
|---------------------------------------|---------------------------------------|
|---------------------------------------|---------------------------------------|
|---------------------------------------|---------------------------------------|
|-8---------------(8)---/10------8------|-7------------------------(7)---7-7----|
|---------------------------------------|---------------------------------------|
|
| S S S S S S S S  S  S   S  S S S  E     S  S S S S S S S S S S S  S  S E
|---------------------------------------|---------------------------------------|
|---------------------------------------|---------------------------------------|
|---------------------------------------|---------------------------------------|
|-7-5---7-5---7-5-----7---5----7-5------|-7--5---7-5---7-5---7-5----7--5--------|
|-----8-----8------8---------8------8---|------7-----7-----7-----7-------7------|
|---------------------------------------|---------------------------------------|


  C                                           E5/B
   E   E   E    E    E     E     E     S  S   E    E   E   E   E   E    E    S S
|-------------------------------------------|------------------------------------|
|-------------------------------------------|------------------------------------|
|-------------------------------------------|------------------------------------|
|-10---x---x---10----x-----x----10----10-10-|-9----x---x---9---x---x----9----9-9-|
|--7---x---x----7----x-----x-----7-----7--7-|-7----x---x---7---x---x----7----7-7-|
|--8---x---x----8----x-----x-----8-----8--8-|-7----x---x---7---x---x----7----7-7-|
|
|  H                +E     E.      E.         H.                       +E    S S
|-------------------------------------------|------------------------------------|
|-------------------------------------------|------------------------------------|
|-------------------------------------------|------------------------------------|
|-------------------------------------------|------------------------------------|
|--7----------------(7)---/8-------7--------|-5------------------------(5)---3-5-|
|-------------------------------------------|------------------------------------|
|
|  S S S S S S  S S  S  S  S  S  S S   E      S  S S S S S S S S S S S  S  S E
|-------------------------------------------|------------------------------------|
|-------------------------------------------|------------------------------------|
|-------------------------------------------|------------------------------------|
|--7-5---7-5----7-5-----7--5-----7-5--------|-2--0---2-0---2-0---2-0----2--0-----|
|------7-----7-------7--------7--------7----|------2-----2-----2-----2-------2---|
|-------------------------------------------|------------------------------------|


  Em/G                           G#5 A5
  E   E   E   E    E    E    E   E    W           +H.       +Q
|----------------------------------|-----------|--------------------*|
|----------------------------------|-----------|--------------------*|
|----------------------------------|-----------|--------------------*|
|-5---x---x---5----x----x----5---6-|--7--------|--(7)-------(7)\----*|
|-7---x---x---7----x----x----7---6-|--7--------|--(7)-------(7)\----*|
|-3---x---x---3----x----x----3---4-|--5--------|--(5)-------(5)\----*|
|
|                                                  ~~~~~~~~~~~~~~
| H               +E    E.     S E    W           +H.       +Q
|----------------------------------|-----------|--------------------*|
|----------------------------------|-10--------|-(10)------(10)\----*|
|----------------------------------|-----------|--------------------*|
|----------------------------------|--7--------|--(7)-------(7)\----*|
|-3---------------(3)---5----------|-----------|--------------------*|
|------------------------------3-4-|-----------|--------------------*|
|
|                                                  ~~~~~~~~~~~~~~
| S S S S S S S S  S  S S  S S S E    W           +H.       +Q
|----------------------------------|-----------|--------------------*|
|----------------------------------|-----------|--------------------*|
|----------------------------------|-----------|--------------------*|
|----------------------------------|--7--------|--(7)-------(7)\----*|
|-3-2---3-2---3-2-----3-2----3-2---|-----------|--------------------*|
|-----3-----3------3-------3-----4-|--5--------|--(5)-------(5)\----*|


Duration Legend
---------------
W - whole; H - half; Q - quarter; E - 8th; S - 16th; T - 32nd; X - 64th; a - acciaccatura
+ - note tied to previous; . - note dotted; .. - note double dotted
Uncapitalized letters represent notes that are staccato (1/2 duration)
Irregular groupings are notated above the duration line
Duration letters will always appear directly above the note/fret number it represents the
duration for.  Duration letters with no fret number below them represent rests.  Multi-
bar rests are notated in the form Wxn, where n is the number of bars to rest for.  Low
melody durations appear below the staff

Tablature Legend
----------------
 h   - hammer-on
 p   - pull-off
 b   - bend
 pb  - pre-bend
 r   - bend release (if no number after the r, then release immediately)
 /\  - slide into or out of (from/to "nowhere")
 s   - legato slide
 S   - shift slide
  - natural harmonic
[n]  - artificial harmonic
n(n) - tapped harmonic
 ~   - vibrato
 tr  - trill
 T   - tap
 TP  - trem. picking
 PM  - palm muting
\n/  - tremolo bar dip; n = amount to dip
 \n  - tremolo bar down
 n/  - tremolo bar up
/n\  - tremolo bar inverted dip
 =   - hold bend; also acts as connecting device for hammers/pulls
 <>  - volume swell (louder/softer)
 x   - on rhythm slash represents muted slash
 o   - on rhythm slash represents single note slash

Misc Legend
-----------
 |  - bar
||  - double bar
||o - repeat start
o|| - repeat end
*|  - double bar (ending)
 :  - bar (freetime)
 $  - Segno
 &  - Coda
Tempo markers -  = BPM(8/16=s8/s16), where s8 = swing 8ths, s16 = swing 16ths


***************************************************************************************
* Generated using Power Tab Editor by Brad Larsen - http://powertab.guitarnetwork.org *
***************************************************************************************
comments
We did not receive enough feedback on this tab! Please rate:
print report bad tab
1 2 3 4 5
I want to post or [tab]
guest
You may want to rate the tab now too:
select rating
Please do not post tabs as comments. Select "correction" instead!