Oops, an error
Loading. Please wait.

The Girl I Love Tab

ver1
ver1

Whole song

Interactive

More versions @911Tabs.com
39 views 1 this week
no commentswrite comment
1 2 3 4 5
please rate
Autoscroll
+/-
esc
set tempo
stop
Hey! There's an official Ultimate Guitar app which is ideal
for learning songs when you're away from computer. Get the app
WARNING: You are trying to view
                                    content from Ultimate-Guitar.com
                                    in an unauthorized application,
                                    which is prohibited.

                                    Please use an official Ultimate
                                    Guitar Tabs application for iPhone,
                                    iPad or Android to access legitimate
                                    chords, guitar, bass, and drum tabs
                                    from Ultimate-Guitar.com database.

                                    Type "ultimate guitar tabs" in Apple
                                    App Store's or Android Market's
                                    search to find the application.
#----------------------------------PLEASE NOTE---------------------------------#
#This file is the author's own work and represents their interpretation of the #
#song. You may only use this file for private study, scholarship, or research. #
#------------------------------------------------------------------------------##

                                 THE GIRL I LOVE
                            As recorded by Quinn Peck

Music by Quinn Peck
Transcribed by guitarist5240

Gtr I (E A D G B E) - 'Untitled'
Gtr II (E A D G B E) - 'Untitled'
Gtr III (E A D G B E) - 'Untitled'
Gtr IV (E A D G B E) - 'Untitled'
Gtr V (E A D G B E) - 'Untitled'

 Intro
  Q=100
  F                   C                   Bb                C
 4/4
  Gtr I
  E E E E E E E S S   E E E E E E E  E    E E E E E E E E    E E E E E  E E E
|-------------------|-------------------|-----------------|--------------------|
|-----6-------6---6-|-----5-------5-(5)-|-----3-------3---|------5--------5----|
|---5---5---5---5---|---5---5---5----5--|---3---3---3-----|----5---5----5---5--|
|-7-------7---------|-5-------5---------|-3-------3-----3-|-/5-------5---------|
|-------------------|-------------------|-----------------|--------------------|
|-------------------|-------------------|-----------------|--------------------|
|
| Gtr II
| W                   W                   W                  H       Q.     E
|-------------------|-------------------|-----------------|--------------------|
|-------------------|-------------------|-----------------|--------------------|
|-------------------|-------------------|-----------------|-----------------5--|
|-------------------|-------------------|-----------------|--------------------|
|-------------------|-------------------|-----------------|--------------------|
|-------------------|-------------------|-----------------|--------------------|


  F                   C
  E E E E E E E S S   E E E E E E E  E
|-------------------|-------------------|
|-----6-------6---6-|-----5-------5-(5)-|
|---5---5---5---5---|---5---5---5----5--|
|-7-------7---------|-5-------5---------|
|-------------------|-------------------|
|-------------------|-------------------|
|
| E E E H       E     E E E H        E
|-------------------|-------------------|
|-5-6---6-----------|-5-6---6-----------|
|---------------5---|----------------5--|
|-------------------|-------------------|
|-------------------|-------------------|
|-------------------|-------------------|


  Bb                   C
  E E E E  E E E E      E  E E E E E  E  E
|--------------------|-----------------------|
|-----3--------3-----|-------5--------5------|
|---3---3----3-------|-----5---5---5-----5---|
|-3--------3-----3---|-/5--------5-----------|
|--------------------|-----------------------|
|--------------------|-----------------------|
|
|                       ~~~
| E E E Q.     E S S    H.           +E  E
|--------------------|-----------------------|
|-5-6---6------5-6-5-|-----------------------|
|--------------------|--5------------(5)-5---|
|--------------------|-----------------------|
|--------------------|-----------------------|
|--------------------|-----------------------|


   Verse
    F                           C
    E E  E   E   E   E  E S S    E  E  E   E   E   E  E  E
||----------------------------|-----------------------------|
||o------6--------------6---6-|--------5--------------5-(5)-|
||----5------5-------5----5---|-----5------5-------5-----5--|
||--7------------7------------|--5-------------5------------|
||o---------------------------|-----------------------------|
||----------------------------|-----------------------------|
|
|   E E  E   H            E      E  E  E   H             E
||----------------------------|-----------------------------|
||o-5-6------6----------------|--5--6------6----------------|
||------------------------5---|--------------------------5--|
||----------------------------|-----------------------------|
||o---------------------------|-----------------------------|
||----------------------------|-----------------------------|
|
|   Gtr III
|                                >
|   Q    E   E   E   E  Q       +Q     E   E   E   E  Q
||----------------------8-----|-(8)---(8)-(8)-(8)-(8)-8-----|
||o---------------------------|-----------------------------|
||------(5)-(5)-(5)-(5)-------|-------(5)-(5)-(5)-(5)-------|
||----------------------------|-----------------------------|
||o---------------------------|-----------------------------|
||----------------------------|-----------------------------|


  Bb                            C
   E  E  E   E   E   E  E E      E  E E E E E  E  E
|-----------------------------|-----------------------||
|--------3--------------3-----|-------5--------5-----o||
|-----3------3-------3--------|-----5---5---5-----5---||
|--3-------------3--------3---|-/5--------5-----------||
|-----------------------------|----------------------o||
|-----------------------------|-----------------------||
|
|  E  E  E   Q.         E S S    H.           +E  E
|-----------------------------|-----------------------||
|--5--6------6----------5-6-5-|----------------------o||
|-----------------------------|--5------------(5)-5---||
|-----------------------------|-----------------------||
|-----------------------------|----------------------o||
|-----------------------------|-----------------------||
|
|  >                    >        <
| +Q     E   E   E   E  Q       +W
|-(8)---(8)-(8)-(8)-(8)-8-----|-(8)-------------------||
|-----------------------------|----------------------o||
|-------(5)-(5)-(5)-(5)-------|-----------------------||
|-----------------------------|-----------------------||
|-----------------------------|----------------------o||
|-----------------------------|-----------------------||


   Chorus
    F                         C
    E      E  E E E E E S S   E  E   E E E E E  E
||--------------------------|------------------------|
||o-----------6-------6---6-|--------5-------5-(5)---|
||---------5----5---5---5---|----5-----5---5----5----|
||--7-------------7---------|-5----------5-----------|
||o-------------------------|------------------------|
||--------------------------|------------------------|
|
|   Gtr IV
|   S  S  +E  E Q   E E S S   E.   S E Q   E E  S  S
||-----5--(5)-5-5---5-5-5-5-|------8-x-8---8-8--8--8-|
||o-5h=6--(6)-x-6---6-6-6-6-|-5----5-x-5---5-5--5--5-|
||--5-(5)-(5)-x-5---5-5-5-5-|-5----5-x-5---5-5--5--5-|
||--5h=7--(7)-x-7---7-7-7-7-|-5----5-x-5---5-5--5--5-|
||o-------------------------|------------------------|
||--------------------------|------------------------|


  Bb                   C
  E  E   E E E E E E    E  E   E E E E E E     3x
|--------------------|-------------------------||
|--------3-------3---|---------5-------5------o||
|----3-----3---3-----|-----5-----5---5---5-----||
|-3----------3-----3-|-/5----------5-----------||
|--------------------|------------------------o||
|--------------------|-------------------------||
|
| E.   S E Q   E E E    E.   S E Q   E E S S   3x
|------6-x-5---5-5-6-|-------8-x-8---8-8-8-8---||
|-3----3-x-3---3-3-3-|--5----5-x-5---5-5-5-5--o||
|-3----3-x-3---3-3-3-|--5----5-x-5---5-5-5-5---||
|-3----3-x-3---3-3-3-|--5----5-x-5---5-5-5-5---||
|--------------------|------------------------o||
|--------------------|-------------------------||


  F                         C
  E      E  E E E E E S S   E  E   E E E E E  E
|-------------------------|------------------------|
|-----------6-------6---6-|--------5-------5-(5)---|
|--------5----5---5---5---|----5-----5---5----5----|
|-7-------------7---------|-5----------5-----------|
|-------------------------|------------------------|
|-------------------------|------------------------|
|
| S  S  +E  E Q   E E S S   E.   S E Q   E E  S  S
|----5--(5)-5-5---5-5-5-5-|------8-x-8---8-8--8--8-|
|-5h=6--(6)-x-6---6-6-6-6-|-5----5-x-5---5-5--5--5-|
|-5-(5)-(5)-x-5---5-5-5-5-|-5----5-x-5---5-5--5--5-|
|-5h=7--(7)-x-7---7-7-7-7-|-5----5-x-5---5-5--5--5-|
|-------------------------|------------------------|
|-------------------------|------------------------|
|
| Gtr III
| W                         W
|-------------------------|------------------------|
|-------------------------|------------------------|
|-------------------------|------------------------|
|-------------------------|------------------------|
|-------------------------|------------------------|
|-------------------------|------------------------|


  Bb                   C
  E  E   E E E E E E    E  E   E E E E E E
|--------------------|-------------------------|
|--------3-------3---|---------5-------5-------|
|----3-----3---3-----|-----5-----5---5---5-----|
|-3----------3-----3-|-/5----------5-----------|
|--------------------|-------------------------|
|--------------------|-------------------------|
|
| E.   S E Q   E E E    E.   S E Q   E E S S
|------6-x-5---5-5-6-|-------8-x-8---8-8-8-8---|
|-3----3-x-3---3-3-3-|--5----5-x-5---5-5-5-5---|
|-3----3-x-3---3-3-3-|--5----5-x-5---5-5-5-5---|
|-3----3-x-3---3-3-3-|--5----5-x-5---5-5-5-5---|
|--------------------|-------------------------|
|--------------------|-------------------------|
|
|            <
| H          E E E E    E  E   E E E E E E
|--------------------|-------------------------|
|--------------3---3-|-----5-----5---5---5-----|
|------------3---3---|--5------5---5---5-------|
|--------------------|-------------------------|
|--------------------|-------------------------|
|--------------------|-------------------------|


   Verse
    F                       C
    E E E E E     E E S S    E  E  E  E E     E E  E
||------------------------|---------------------------|
||o-----6-----------6---6-|--------5------------5-(5)-|
||----5---5-------5---5---|-----5-----5-------5----5--|
||--7-------7-------------|--5----------5-------------|
||o-----------------------|---------------------------|
||------------------------|---------------------------|
|
|   Gtr II
|   E E E H           E      E  E  E  H            E
||------------------------|---------------------------|
||o-5-6---6---------------|--5--6-----6---------------|
||--------------------5---|------------------------5--|
||------------------------|---------------------------|
||o-----------------------|---------------------------|
||------------------------|---------------------------|
|
|   Gtr III
|                            >
|           |-3-|                       |-3-|
|   Q   Q   S S S E Q       +Q    +Q    S S S E Q
||------------------8-----|-(8)---(8)-----------8-----|
||o---------5h6p5---------|-------------5h6p5---------|
||----------------5-------|-------------------5-------|
||------------------------|---------------------------|
||o-----------------------|---------------------------|
||------------------------|---------------------------|


  Bb                           C
   E  E  E  E  E     E E E      E  E E E E E  E  E
|----------------------------|----------------------||
|--------3-------------3-----|-------5--------5----o||
|-----3-----3--------3-------|-----5---5---5-----5--||
|--3-----------3---------3---|-/5--------5----------||
|----------------------------|---------------------o||
|----------------------------|----------------------||
|
|  E  E  E  Q.         E S S    H.           +E  E
|----------------------------|----------------------||
|--5--6-----6----------5-6-5-|---------------------o||
|----------------------------|--5------------(5)-5--||
|----------------------------|----------------------||
|----------------------------|---------------------o||
|----------------------------|----------------------||
|
|  >                            <
|              |-3-|
| +Q    +Q     S S S E Q       +W
|-(8)---(8)------------8-----|-(8)------------------||
|--------------5h6p5---------|---------------------o||
|--------------------5-------|----------------------||
|----------------------------|----------------------||
|----------------------------|---------------------o||
|----------------------------|----------------------||


   Chorus
    F                         C
    Gtr I
    E      E  E E E E E S S   E  E   E E E E E  E
||--------------------------|------------------------|
||o-----------6-------6---6-|--------5-------5-(5)---|
||---------5----5---5---5---|----5-----5---5----5----|
||--7-------------7---------|-5----------5-----------|
||o-------------------------|------------------------|
||--------------------------|------------------------|
|
|   Gtr IV
|   S  S  +E  E Q   E E S S   E.   S E Q   E E  S  S
||-----5--(5)-5-5---5-5-5-5-|------8-x-8---8-8--8--8-|
||o-5h=6--(6)-x-6---6-6-6-6-|-5----5-x-5---5-5--5--5-|
||--5-(5)-(5)-x-5---5-5-5-5-|-5----5-x-5---5-5--5--5-|
||--5h=7--(7)-x-7---7-7-7-7-|-5----5-x-5---5-5--5--5-|
||o-------------------------|------------------------|
||--------------------------|------------------------|
|
|   Gtr III
|   E      q    H       E     E  q     Q   E E  E
||--------------------------|------------------------|
||o-------------------------|------------------------|
||---------5----5-----------|----5-----5-----5-------|
||--------------------------|------------------------|
||o-8-----------8-------8---|-7--------7---7----7----|
||--------------------------|------------------------|


  Bb                    C
  E  E   E E  E E E E    E  E   E E E E E  E      3x
|---------------------|---------------------------||
|--------3--------3---|---------5-------5--------o||
|----3-----3----3-----|-----5-----5---5----5------||
|-3-----------3-----3-|-/5----------5-------------||
|---------------------|--------------------------o||
|---------------------|---------------------------||
|
| E.   S E Q    E E E    E.   S E Q   E E  S  S   3x
|------6-x-5----5-5-6-|-------8-x-8---8-8--8--8---||
|-3----3-x-3----3-3-3-|--5----5-x-5---5-5--5--5--o||
|-3----3-x-3----3-3-3-|--5----5-x-5---5-5--5--5---||
|-3----3-x-3----3-3-3-|--5----5-x-5---5-5--5--5---||
|---------------------|--------------------------o||
|---------------------|---------------------------||
|
| E  q     Q.     E E    E  q     H       +E      3x
|---------------------|---------------------------||
|---------------------|--------------------------o||
|----3-----3------3---|-----5-----5-------(5)-----||
|---------------------|---------------------------||
|-5--------5--------3-|--7--------7-------(7)----o||
|---------------------|---------------------------||


  F                         C
  E      E  E E E E E S S   E  E   E E E E E  E
|-------------------------|------------------------|
|-----------6-------6---6-|--------5-------5-(5)---|
|--------5----5---5---5---|----5-----5---5----5----|
|-7-------------7---------|-5----------5-----------|
|-------------------------|------------------------|
|-------------------------|------------------------|
|
| Gtr IV
| S  S  +E  E Q   E E S S   E.   S E Q   E E  S  S
|----5--(5)-5-5---5-5-5-5-|------8-x-8---8-8--8--8-|
|-5h=6--(6)-x-6---6-6-6-6-|-5----5-x-5---5-5--5--5-|
|-5-(5)-(5)-x-5---5-5-5-5-|-5----5-x-5---5-5--5--5-|
|-5h=7--(7)-x-7---7-7-7-7-|-5----5-x-5---5-5--5--5-|
|-------------------------|------------------------|
|-------------------------|------------------------|
|
| E      q    H       E     E  q     Q   E E  E
|-------------------------|------------------------|
|-------------------------|------------------------|
|--------5----5-----------|----5-----5-----5-------|
|-------------------------|------------------------|
|-8-----------8-------8---|-7--------7---7----7----|
|-------------------------|------------------------|


  Bb                    C
  E  E   E E  E E E E     E  E  E  E  E  E  E  E
|---------------------|---------------------------|
|--------3--------3---|---------5-----------5-----|
|----3-----3----3-----|------5-----5-----5-----5--|
|-3-----------3-----3-|--/5-----------5-----------|
|---------------------|---------------------------|
|---------------------|---------------------------|
|
| E.   S E Q    E E E     E  E  E  E  E  E  E  E
|------6-x-5----5-5-6-|---8--8--8--8--8--8--8--8--|
|-3----3-x-3----3-3-3-|---5--5--5--5--5--5--5--5--|
|-3----3-x-3----3-3-3-|---5--5--5--5--5--5--5--5--|
|-3----3-x-3----3-3-3-|---5--5--5--5--5--5--5--5--|
|---------------------|---------------------------|
|---------------------|---------------------------|
|
| E  q     Q.     E E     E  E  E  E  E  E  E  E
|---------------------|---------------------------|
|---------------------|---------------------------|
|----3-----3------3---|-/12-12-12-12-14-14-15-15--|
|---------------------|-/14-14-14-14-15-15-15-15--|
|-5--------5--------3-|---------------------------|
|---------------------|---------------------------|


 Guitar Solo Out
  F                                     C
      Gtr I
         E      E   E  E E  E  E  S S    E    E    E  E E E E  E
|-------------------------------------|-----------------------------|
|-------------------6----------6----6-|------------5--------5-(5)---|
|---------------5------5----5-----5---|-------5-------5---5----5----|
|--------7---------------7------------|--5--------------5-----------|
|-------------------------------------|-----------------------------|
|-------------------------------------|-----------------------------|
|
|     Gtr IV
|        S  S  +E   E  Q    E  E  S S    E.     S  E  Q   E E  S  S
|-----------5--(5)--5--5----5--5--5-5-|---------8--x--8---8-8--8--8-|
|--------5h=6--(6)--x--6----6--6--6-6-|--5------5--x--5---5-5--5--5-|
|--------5-(5)-(5)--x--5----5--5--5-5-|--5------5--x--5---5-5--5--5-|
|--------5h=7--(7)--x--7----7--7--7-7-|--5------5--x--5---5-5--5--5-|
|-------------------------------------|-----------------------------|
|-------------------------------------|-----------------------------|
|
| Gtr V
|        ~~~           ~~                ~~~~~        ~~
| a a a  Q          E  Q    E  E  E      Q         E  H        E
|-------18---------17-----------------|-17b18-----17----------------|
|-----x---------------18--------------|--------------18-------------|
|---x----------------------17-15-14---|-----------------------17----|
|-x-----------------------------------|-----------------------------|
|-------------------------------------|-----------------------------|
|-------------------------------------|-----------------------------|


        Bb                         C
         E  E    E  E E  E  E  E    E   E    E  E  E  E  E  E
|--------------------------------|--------------------------------|
|----------------3----------3----|-----------5-----------5--------|
|-----------3-------3----3-------|------5-------5-----5-----5-----|
|--------3------------3--------3-|-/5--------------5--------------|
|--------------------------------|--------------------------------|
|--------------------------------|--------------------------------|
|
|        E.   S  E  Q    E  E  E    E.    S  E  Q     E  E  S S
|-------------6--x--5----5--5--6-|--------8--x--8-----8--8--8-8---|
|--------3----3--x--3----3--3--3-|--5-----5--x--5-----5--5--5-5---|
|--------3----3--x--3----3--3--3-|--5-----5--x--5-----5--5--5-5---|
|--------3----3--x--3----3--3--3-|--5-----5--x--5-----5--5--5-5---|
|--------------------------------|--------------------------------|
|--------------------------------|--------------------------------|
|
|        ~~~        ~~
| a a a  Q       E  Q    E  E  E    E   E    E  E  E  E  E  E
|-------18------17---------------|-15-------------15-------17-----|
|-----x------------18------------|----------18----------18--------|
|---x-------------------17-15-17-|-----17------17----17-----------|
|-x------------------------------|--------------------------------|
|--------------------------------|--------------------------------|
|--------------------------------|--------------------------------|


  F                                     C
         E      E   E  E E  E  E  S S    E      E     E  E E E E  E
|-------------------------------------|--------------------------------|
|-------------------6----------6----6-|---------------5--------5-(5)---|
|---------------5------5----5-----5---|---------5--------5---5----5----|
|--------7---------------7------------|--5-----------------5-----------|
|-------------------------------------|--------------------------------|
|-------------------------------------|--------------------------------|
|
|        S  S  +E   E  Q    E  E  S S    E.        S  E  Q   E E  S  S
|-----------5--(5)--5--5----5--5--5-5-|------------8--x--8---8-8--8--8-|
|--------5h=6--(6)--x--6----6--6--6-6-|--5---------5--x--5---5-5--5--5-|
|--------5-(5)-(5)--x--5----5--5--5-5-|--5---------5--x--5---5-5--5--5-|
|--------5h=7--(7)--x--7----7--7--7-7-|--5---------5--x--5---5-5--5--5-|
|-------------------------------------|--------------------------------|
|-------------------------------------|--------------------------------|
|
|        ~~~           ~~                ~~~~~           ~~
| a a a  Q          E  Q    E  E  E      E     +E     E  H        E
|-------18---------17-----------------|-17b18-(17)---17----------------|
|-----x---------------18--------------|-----------------18-------------|
|---x----------------------17-15-14---|--------------------------17----|
|-x-----------------------------------|--------------------------------|
|-------------------------------------|--------------------------------|
|-------------------------------------|--------------------------------|


  Bb                               C
         E  E    E  E E  E  E  E    E   E    E  E  E  E  E  E
|--------------------------------|--------------------------------|
|----------------3----------3----|-----------5-----------5--------|
|-----------3-------3----3-------|------5-------5-----5-----5-----|
|--------3------------3--------3-|-/5--------------5--------------|
|--------------------------------|--------------------------------|
|--------------------------------|--------------------------------|
|
|        E.   S  E  Q    E  E  E    E.    S  E  Q     E  E  S S
|-------------6--x--5----5--5--6-|--------8--x--8-----8--8--8-8---|
|--------3----3--x--3----3--3--3-|--5-----5--x--5-----5--5--5-5---|
|--------3----3--x--3----3--3--3-|--5-----5--x--5-----5--5--5-5---|
|--------3----3--x--3----3--3--3-|--5-----5--x--5-----5--5--5-5---|
|--------------------------------|--------------------------------|
|--------------------------------|--------------------------------|
|
|        ~~~        ~~
| a a a  Q       E  Q    E  E  E    E   E    E  E  E  E  E  E
|-------18------17---------------|-15-------------15-------17-----|
|-----x------------18------------|----------18----------18--------|
|---x-------------------17-15-17-|-----17------17----17-----------|
|-x------------------------------|--------------------------------|
|--------------------------------|--------------------------------|
|--------------------------------|--------------------------------|


  F                                      C
         E      E   E   E E  E  E  S S    E  E    E  E E  E  E  E
|--------------------------------------|-----------------------------|
|-------------------6-----------6----6-|----------5----------5-(5)---|
|---------------5-------5----5-----5---|-----5-------5----5-----5----|
|--------7----------------7------------|--5------------5-------------|
|--------------------------------------|-----------------------------|
|--------------------------------------|-----------------------------|
|
|        S  S  +E   E   Q    E  E  S S    E.   S  E  Q    E  E  S  S
|-----------5--(5)--5---5----5--5--5-5-|-------8--x--8----8--8--8--8-|
|--------5h=6--(6)--x---6----6--6--6-6-|--5----5--x--5----5--5--5--5-|
|--------5-(5)-(5)--x---5----5--5--5-5-|--5----5--x--5----5--5--5--5-|
|--------5h=7--(7)--x---7----7--7--7-7-|--5----5--x--5----5--5--5--5-|
|--------------------------------------|-----------------------------|
|--------------------------------------|-----------------------------|
|
|        ~~~
| a a a  Q          E   q    E  E  E      Q       E  q    E  E  E
|-------18---------17-/20---18-17------|-17---------20---17----------|
|-----x---------------------------18---|---------18---------18-------|
|---x----------------------------------|-----------------------17----|
|-x------------------------------------|-----------------------------|
|--------------------------------------|-----------------------------|
|--------------------------------------|-----------------------------|


  Bb                             C
   E   E    E  E  E  E  E   E      E  E    E E  E E  E E
|------------------------------|-----------------------------|
|-----------3-----------3------|-----------5---------5-------|
|------3-------3-----3---------|------5------5----5----5-----|
|--3--------------3---------3--|--/5------------5------------|
|------------------------------|-----------------------------|
|------------------------------|-----------------------------|
|
|  E.    S  E  Q     E  E   E      E.   S  E Q    E  E S S
|--------6--x--5-----5--5---6--|--------8--x-8----8--8-8-8---|
|--3-----3--x--3-----3--3---3--|---5----5--x-5----5--5-5-5---|
|--3-----3--x--3-----3--3---3--|---5----5--x-5----5--5-5-5---|
|--3-----3--x--3-----3--3---3--|---5----5--x-5----5--5-5-5---|
|------------------------------|-----------------------------|
|------------------------------|-----------------------------|
|
|  E   E    E  E  E  E  E   E      Q       Q    Q    Q
|-17----------17-------17-(17)-|-(17)-----17---18---17-------|
|-----18---------18--------18--|--18-------------------------|
|----------17-------17---------|-----------------------------|
|------------------------------|-----------------------------|
|------------------------------|-----------------------------|
|------------------------------|-----------------------------|


  F                                      C
         E      E   E   E E  E  E  S S    E  E    E  E E  E  E  E
|--------------------------------------|-----------------------------|
|-------------------6-----------6----6-|----------5----------5-(5)---|
|---------------5-------5----5-----5---|-----5-------5----5-----5----|
|--------7----------------7------------|--5------------5-------------|
|--------------------------------------|-----------------------------|
|--------------------------------------|-----------------------------|
|
|        S  S  +E   E   Q    E  E  S S    E.   S  E  Q    E  E  S  S
|-----------5--(5)--5---5----5--5--5-5-|-------8--x--8----8--8--8--8-|
|--------5h=6--(6)--x---6----6--6--6-6-|--5----5--x--5----5--5--5--5-|
|--------5-(5)-(5)--x---5----5--5--5-5-|--5----5--x--5----5--5--5--5-|
|--------5h=7--(7)--x---7----7--7--7-7-|--5----5--x--5----5--5--5--5-|
|--------------------------------------|-----------------------------|
|--------------------------------------|-----------------------------|
|
|        ~~~
| a a a  Q          E   q    E  E  E      Q       E  q    E  E  E
|-------18---------17-/20---18-17------|-17---------18---17----------|
|-----x---------------------------18---|---------18---------18-------|
|---x----------------------------------|-----------------------17----|
|-x------------------------------------|-----------------------------|
|--------------------------------------|-----------------------------|
|--------------------------------------|-----------------------------|


  Bb                             C
   E   E    E  E  E  E  E   E      E  E    E E  E  E  E  E
|------------------------------|--------------------------------|
|-----------3-----------3------|-----------5----------5---------|
|------3-------3-----3---------|------5------5-----5-----5------|
|--3--------------3---------3--|--/5------------5---------------|
|------------------------------|--------------------------------|
|------------------------------|--------------------------------|
|
|  E.    S  E  Q     E  E   E      E.   S  E Q     E  E  S  S
|--------6--x--5-----5--5---6--|--------8--x-8-----8--8--8--8---|
|--3-----3--x--3-----3--3---3--|---5----5--x-5-----5--5--5--5---|
|--3-----3--x--3-----3--3---3--|---5----5--x-5-----5--5--5--5---|
|--3-----3--x--3-----3--3---3--|---5----5--x-5-----5--5--5--5---|
|------------------------------|--------------------------------|
|------------------------------|--------------------------------|
|
|  E   E    E  E  E  E  E   E     +Q       Q    E  E  E  S  S
|-17----------17-------17-(17)-|-(17)-----17---18----17-18-17---|
|-----18---------18--------18--|-(18)-------------18------------|
|----------17-------17---------|--------------------------------|
|------------------------------|--------------------------------|
|------------------------------|--------------------------------|
|------------------------------|--------------------------------|


  F
   E      E      E     E     E     E     E     S S
|--------------------------------------------------|
|----------------6-----------------------6-------6-|
|---------5------------5-----------5-----------5---|
|--7-------------------------7---------------------|
|--------------------------------------------------|
|--------------------------------------------------|
|
|  S  S  +E      E     Q           E     E     S S
|-----5--(5)-----5-----5-----------5-----5-----5-5-|
|--5h=6--(6)-----x-----6-----------6-----6-----6-6-|
|--5-(5)-(5)-----x-----5-----------5-----5-----5-5-|
|--5h=7--(7)-----x-----7-----------7-----7-----7-7-|
|--------------------------------------------------|
|--------------------------------------------------|
|
|  S  S   S   S  S  S  S  S  S  S  S  S  S  S  E
|-18p17------18p17----18p17----18p17----18p17------|
|--------18--------18-------18-------18-------18---|
|--------------------------------------------------|
|--------------------------------------------------|
|--------------------------------------------------|
|--------------------------------------------------|


  C
   E     E     E     E     E     E     E     E
|-------------------------------------------------|
|--------------5-----------------------5----(5)---|
|--------5-----------5-----------5-----------5----|
|--5-----------------------5----------------------|
|-------------------------------------------------|
|-------------------------------------------------|
|
|  E.       S  E     Q           E     E     S  S
|-----------8--x-----8-----------8-----8-----8--8-|
|--5--------5--x-----5-----------5-----5-----5--5-|
|--5--------5--x-----5-----------5-----5-----5--5-|
|--5--------5--x-----5-----------5-----5-----5--5-|
|-------------------------------------------------|
|-------------------------------------------------|
|
|  S  S  S  S  S  S  S  S  S  S  S  S  S  S  E
|-20p17----20p17----20p17----20p17----20p17-------|
|-------18-------18-------18-------18-------18----|
|-------------------------------------------------|
|-------------------------------------------------|
|-------------------------------------------------|
|-------------------------------------------------|


  Bb
   E     E     E     E     E     E     E     E
|------------------------------------------------|
|--------------3-----------------------3---------|
|--------3-----------3-----------3---------------|
|--3-----------------------3-----------------3---|
|------------------------------------------------|
|------------------------------------------------|
|
|  E.       S  E     Q           E     E     S S
|-----------6--x-----5-----------5-----5-----5-6-|
|--3--------3--x-----3-----------3-----3-----3-3-|
|--3--------3--x-----3-----------3-----3-----3-3-|
|--3--------3--x-----3-----------3-----3-----3-3-|
|------------------------------------------------|
|------------------------------------------------|
|
|  S  S  S  S  S  S  S  S  S  S  S  S  S  S  E
|-18p17----18p17----18p17----18p17----18p17------|
|-------18-------18-------18-------18-------18---|
|------------------------------------------------|
|------------------------------------------------|
|------------------------------------------------|
|------------------------------------------------|


  C
   E     E     E     E     E     E     E     E
|------------------------------------------------|
|--------------5-----------------------5---------|
|--------5-----------5-----------5-----------5---|
|-/5-----------------------5---------------------|
|------------------------------------------------|
|------------------------------------------------|
|
|  E.       S  E     Q           E     E     S S
|-----------8--x-----8-----------8-----8-----8-8-|
|--5--------5--x-----5-----------5-----5-----5-5-|
|--5--------5--x-----5-----------5-----5-----5-5-|
|--5--------5--x-----5-----------5-----5-----5-5-|
|------------------------------------------------|
|------------------------------------------------|
|
|  S  S  S  S  S  S  S  S  S  S  S  S  S  S  E
|-20p17----20p17----20p17----20p17----20p17------|
|-------18-------18-------18-------18-------18---|
|------------------------------------------------|
|------------------------------------------------|
|------------------------------------------------|
|------------------------------------------------|


  F
   E      E      E     E     E     E     E     S S
|--------------------------------------------------|
|----------------6-----------------------6-------6-|
|---------5------------5-----------5-----------5---|
|--7-------------------------7---------------------|
|--------------------------------------------------|
|--------------------------------------------------|
|
|  S  S  +E      E     Q           E     E     S S
|-----5--(5)-----5-----5-----------5-----5-----5-5-|
|--5h=6--(6)-----x-----6-----------6-----6-----6-6-|
|--5-(5)-(5)-----x-----5-----------5-----5-----5-5-|
|--5h=7--(7)-----x-----7-----------7-----7-----7-7-|
|--------------------------------------------------|
|--------------------------------------------------|
|
|  S  S   S   S  S  S  S  S  S  S  S  S  S  S  E
|-18p17------18p17----18p17----18p17----18p17------|
|--------18--------18-------18-------18-------18---|
|--------------------------------------------------|
|--------------------------------------------------|
|--------------------------------------------------|
|--------------------------------------------------|


  C
   E     E     E     E     E     E     E     E
|-------------------------------------------------|
|--------------5-----------------------5----(5)---|
|--------5-----------5-----------5-----------5----|
|--5-----------------------5----------------------|
|-------------------------------------------------|
|-------------------------------------------------|
|
|  E.       S  E     Q           E     E     S  S
|-----------8--x-----8-----------8-----8-----8--8-|
|--5--------5--x-----5-----------5-----5-----5--5-|
|--5--------5--x-----5-----------5-----5-----5--5-|
|--5--------5--x-----5-----------5-----5-----5--5-|
|-------------------------------------------------|
|-------------------------------------------------|
|
|  S  S  S  S  S  S  S  S  S  S  S  S  S  S  E
|-20p17----20p17----20p17----20p17----20p17-------|
|-------18-------18-------18-------18-------18----|
|-------------------------------------------------|
|-------------------------------------------------|
|-------------------------------------------------|
|-------------------------------------------------|


  Bb
   E     E     E     E     E     E     E     E
|----------------------------------------------|
|--------------3-----------------------3-------|
|--------3-----------3-----------3-------------|
|--3-----------------------3-----------------3-|
|----------------------------------------------|
|----------------------------------------------|
|
|  E.       S  E     Q           E     E     E
|-----------6--x-----5-----------5-----5-----6-|
|--3--------3--x-----3-----------3-----3-----3-|
|--3--------3--x-----3-----------3-----3-----3-|
|--3--------3--x-----3-----------3-----3-----3-|
|----------------------------------------------|
|----------------------------------------------|
|
|  S  S  S  S  S  S  S  S  S  S  S  S  S  S  E
|-18p17----18p17----18p17----18p17----18p17----|
|-------18-------18-------18-------18-------18-|
|----------------------------------------------|
|----------------------------------------------|
|----------------------------------------------|
|----------------------------------------------|


  C
   E        E          E        E        E        E        E         E
|--------------------------------------------------------------------------|
|----------------------5-----------------------------------5---------------|
|-----------5-------------------5-----------------5------------------5-----|
|-/5-------------------------------------5---------------------------------|
|--------------------------------------------------------------------------|
|--------------------------------------------------------------------------|
|
|  E.            S     E        Q                 E        E         S  S
|----------------8-----x--------8-----------------8--------8---------8--8--|
|--5-------------5-----x--------5-----------------5--------5---------5--5--|
|--5-------------5-----x--------5-----------------5--------5---------5--5--|
|--5-------------5-----x--------5-----------------5--------5---------5--5--|
|--------------------------------------------------------------------------|
|--------------------------------------------------------------------------|
|
|  |--3--|  |---3---|  |--3--|  |--3--|  |--3--|  |--3--|  |--3--|
|  S  S  S  S  S    S  S  S  S  S  S  S  S  S  S  S  S  S  S  S  S  +E
|-20p17----20p17------20p17----20p17----20p17----20p17----20p17------------|
|-------18---------18-------18-------18-------18-------18-------18-(18)----|
|--------------------------------------------------------------------------|
|--------------------------------------------------------------------------|
|--------------------------------------------------------------------------|
|--------------------------------------------------------------------------|


  F                                     C
         E      E   E  E E  E  E  S S    E    E    E  E E E E  E
|-------------------------------------|-----------------------------|
|-------------------6----------6----6-|------------5--------5-(5)---|
|---------------5------5----5-----5---|-------5-------5---5----5----|
|--------7---------------7------------|--5--------------5-----------|
|-------------------------------------|-----------------------------|
|-------------------------------------|-----------------------------|
|
|        S  S  +E   E  Q    E  E  S S    E.     S  E  Q   E E  S  S
|-----------5--(5)--5--5----5--5--5-5-|---------8--x--8---8-8--8--8-|
|--------5h=6--(6)--x--6----6--6--6-6-|--5------5--x--5---5-5--5--5-|
|--------5-(5)-(5)--x--5----5--5--5-5-|--5------5--x--5---5-5--5--5-|
|--------5h=7--(7)--x--7----7--7--7-7-|--5------5--x--5---5-5--5--5-|
|-------------------------------------|-----------------------------|
|-------------------------------------|-----------------------------|
|
|        ~~~           ~~                ~~~~~        ~~
| a a a  Q          E  Q    E  E  E      Q         E  H        E
|-------18---------17-----------------|-17b18-----17----------------|
|-----x---------------18--------------|--------------18-------------|
|---x----------------------17-15-14---|-----------------------17----|
|-x-----------------------------------|-----------------------------|
|-------------------------------------|-----------------------------|
|-------------------------------------|-----------------------------|


  Bb                               C
         E  E    E  E E  E  E  E    E   E    E  E  E  E  E  E
|--------------------------------|--------------------------------|
|----------------3----------3----|-----------5-----------5--------|
|-----------3-------3----3-------|------5-------5-----5-----5-----|
|--------3------------3--------3-|-/5--------------5--------------|
|--------------------------------|--------------------------------|
|--------------------------------|--------------------------------|
|
|        E.   S  E  Q    E  E  E    E.    S  E  Q     E  E  S S
|-------------6--x--5----5--5--6-|--------8--x--8-----8--8--8-8---|
|--------3----3--x--3----3--3--3-|--5-----5--x--5-----5--5--5-5---|
|--------3----3--x--3----3--3--3-|--5-----5--x--5-----5--5--5-5---|
|--------3----3--x--3----3--3--3-|--5-----5--x--5-----5--5--5-5---|
|--------------------------------|--------------------------------|
|--------------------------------|--------------------------------|
|
|        ~~~        ~~
| a a a  Q       E  Q    E  E  E    E   E    E  E  E  E  E  E
|-------18------17---------------|-15-------------15-------17-----|
|-----x------------18------------|----------18----------18--------|
|---x-------------------17-15-17-|-----17------17----17-----------|
|-x------------------------------|--------------------------------|
|--------------------------------|--------------------------------|
|--------------------------------|--------------------------------|


  F                                     C
         E      E   E  E E  E  E  S S    E      E     E  E E E E  E
|-------------------------------------|--------------------------------|
|-------------------6----------6----6-|---------------5--------5-(5)---|
|---------------5------5----5-----5---|---------5--------5---5----5----|
|--------7---------------7------------|--5-----------------5-----------|
|-------------------------------------|--------------------------------|
|-------------------------------------|--------------------------------|
|
|        S  S  +E   E  Q    E  E  S S    E.        S  E  Q   E E  S  S
|-----------5--(5)--5--5----5--5--5-5-|------------8--x--8---8-8--8--8-|
|--------5h=6--(6)--x--6----6--6--6-6-|--5---------5--x--5---5-5--5--5-|
|--------5-(5)-(5)--x--5----5--5--5-5-|--5---------5--x--5---5-5--5--5-|
|--------5h=7--(7)--x--7----7--7--7-7-|--5---------5--x--5---5-5--5--5-|
|-------------------------------------|--------------------------------|
|-------------------------------------|--------------------------------|
|
|        ~~~           ~~                ~~~~~           ~~
| a a a  Q          E  Q    E  E  E      E     +E     E  H        E
|-------18---------17-----------------|-17b18-(17)---17----------------|
|-----x---------------18--------------|-----------------18-------------|
|---x----------------------17-15-14---|--------------------------17----|
|-x-----------------------------------|--------------------------------|
|-------------------------------------|--------------------------------|
|-------------------------------------|--------------------------------|


  Bb                               C
         E  E    E  E E  E  E  E    E   E    E  E  E  E  E  E
|--------------------------------|--------------------------------*|
|----------------3----------3----|-----------5-----------5--------*|
|-----------3-------3----3-------|------5-------5-----5-----5-----*|
|--------3------------3--------3-|-/5--------------5--------------*|
|--------------------------------|--------------------------------*|
|--------------------------------|--------------------------------*|
|
|        E.   S  E  Q    E  E  E    E.    S  E  Q     E  E  S S
|-------------6--x--5----5--5--6-|--------8--x--8-----8--8--8-8---*|
|--------3----3--x--3----3--3--3-|--5-----5--x--5-----5--5--5-5---*|
|--------3----3--x--3----3--3--3-|--5-----5--x--5-----5--5--5-5---*|
|--------3----3--x--3----3--3--3-|--5-----5--x--5-----5--5--5-5---*|
|--------------------------------|--------------------------------*|
|--------------------------------|--------------------------------*|
|
|        ~~~        ~~
| a a a  Q       E  Q    E  E  E    E   E    E  E  E  E  E  E
|-------18------17---------------|-15-------------15-------17-----*|
|-----x------------18------------|----------18----------18--------*|
|---x-------------------17-15-17-|-----17------17----17-----------*|
|-x------------------------------|--------------------------------*|
|--------------------------------|--------------------------------*|
|--------------------------------|--------------------------------*|


Duration Legend
---------------
W - whole; H - half; Q - quarter; E - 8th; S - 16th; T - 32nd; X - 64th; a - acciaccatura
+ - note tied to previous; . - note dotted; .. - note double dotted
Uncapitalized letters represent notes that are staccato (1/2 duration)
Irregular groupings are notated above the duration line
Duration letters will always appear directly above the note/fret number it represents the
duration for.  Duration letters with no fret number below them represent rests.  Multi-
bar rests are notated in the form Wxn, where n is the number of bars to rest for.  Low
melody durations appear below the staff

Tablature Legend
----------------
 h   - hammer-on
 p   - pull-off
 b   - bend
 pb  - pre-bend
 r   - bend release (if no number after the r, then release immediately)
 /\  - slide into or out of (from/to "nowhere")
 s   - legato slide
 S   - shift slide
  - natural harmonic
[n]  - artificial harmonic
n(n) - tapped harmonic
 ~   - vibrato
 tr  - trill
 T   - tap
 TP  - trem. picking
 PM  - palm muting
\n/  - tremolo bar dip; n = amount to dip
 \n  - tremolo bar down
 n/  - tremolo bar up
/n\  - tremolo bar inverted dip
 =   - hold bend; also acts as connecting device for hammers/pulls
 <>  - volume swell (louder/softer)
 x   - on rhythm slash represents muted slash
 o   - on rhythm slash represents single note slash

Misc Legend
-----------
 |  - bar
||  - double bar
||o - repeat start
o|| - repeat end
*|  - double bar (ending)
 :  - bar (freetime)
 $  - Segno
 &  - Coda
Tempo markers -  = BPM(8/16=s8/s16), where s8 = swing 8ths, s16 = swing 16ths


***************************************************************************************
* Generated using Power Tab Editor by Brad Larsen - http://powertab.guitarnetwork.org *
***************************************************************************************
comments
We did not receive enough feedback on this tab! Please rate:
print report bad tab
1 2 3 4 5
I want to post or [tab]
guest
You may want to rate the tab now too:
select rating
Please do not post tabs as comments. Select "correction" instead!