Oops, an error
Loading. Please wait.

The Midnight Sun Tab

ver1
ver1

Whole song

Interactive

More versions @911Tabs.com
84 views 1 this week
no commentswrite comment
1 2 3 4 5
please rate
Autoscroll
+/-
esc
set tempo
stop
Hey! There's an official Ultimate Guitar app which is ideal
for learning songs when you're away from computer. Get the app
WARNING: You are trying to view
                                    content from Ultimate-Guitar.com
                                    in an unauthorized application,
                                    which is prohibited.

                                    Please use an official Ultimate
                                    Guitar Tabs application for iPhone,
                                    iPad or Android to access legitimate
                                    chords, guitar, bass, and drum tabs
                                    from Ultimate-Guitar.com database.

                                    Type "ultimate guitar tabs" in Apple
                                    App Store's or Android Market's
                                    search to find the application.
#----------------------------------PLEASE NOTE---------------------------------#
#This file is the author's own work and represents their interpretation of the #
#song. You may only use this file for private study, scholarship, or research. #
#------------------------------------------------------------------------------##

                                THE MIDNIGHT SUN
                            As recorded by Quinn Peck

Music by Quinn Peck
Arranged by Quinn Peck
Transcribed by guitarist5240

Gtr I (E A D G B E) - 'Untitled'
Gtr II (E A D G B E) - 'Untitled'
Gtr III (E A D G B E) - 'Untitled'

 Intro
  A/F#  E/Ab          A/F#  E/Ab
 4/4
  Gtr I
  Q.      Q.    Q     Q.      Q.    Q
|-------------------|-------------------|
|-2-------5-----5---|-2-------5-----5---|
|-2-------4-----4---|-2-------4-----4---|
|-------------------|-------------------|
|-------------------|-------------------|
|-2---2-/(4)--4---0-|-2---2-/(4)--4---0-|
  Q   E   Q   Q   E   Q   E   Q   Q   E


  A/F#  E/Ab          A/F#  E/Ab
  Q.      Q.    Q     Q.      Q.    Q
|-------------------|-------------------|
|-2-------5-----5---|-2-------5-----5---|
|-2-------4-----4---|-2-------4-----4---|
|-------------------|-------------------|
|-------------------|-------------------|
|-2---2-/(4)--4---0-|-2---2-/(4)--4---0-|
  Q   E   Q   Q   E   Q   E   Q   Q   E


  A5               E   D/B                 D/F#               E/Ab
   Q.     Q.     E E   Q.    Q.     Q      Q.    Q.     Q      H    E E E E
|--------------------|-------------------|------------------|-----------0----
|-10-----10-----10-9-|-7-----7------7----|-3-----3------3---|--5------5---5--
|--9------9------9-9-|-7-----7------7----|-2-----2------2---|--4----4-----4--
|--------------------|-------------------|------------------|----------------
|--0---0-----0-------|-------------------|------------------|----------------
|--------------------|-7---7----7-----7\-|-2---2----2-----2-|-/4-------------
   Q   Q     H         Q   Q    Q.    E    Q   Q    Q.    E    W


   Verse
    A/F#                     E/Ab
    Q.           Q.    Q      Q.    Q.       Q
||-------------------------|---------------------|
||o-2------------2-----2---|--5-----5--------5---|
||--2------------2-----2---|--4-----4--------4---|
||-------------------------|---------------------|
||o------------------------|---------------------|
||--2--------2--(2)--2---2-|-/4---4-4------4---0-|
|   Q        E   Q   Q   E    Q   E Q      Q   E
|
|   Gtr II
|      |-3-|
|   E  S S S Q.      E E E    H        +E  E E E
||-------------------------|--4--------(4)-4-5-4-|
||o----------5---------5-7-|---------------------|
||-----4h5h6---------6-----|---------------------|
||-------------------------|---------------------|
||o------------------------|---------------------|
||-------------------------|---------------------|


  A/F#                    E/Ab
  Q.     Q.       Q        Q.    Q.    Q
|-----------------------|-------------------|
|-2------2--------2-----|--5-----5-----5----|
|-2------2--------2-----|--4-----4-----4----|
|-----------------------|-------------------|
|-----------------------|-------------------|
|-2---2-(2)-----2-----2-|-/4---4-4---4---0--|
| Q   E  Q      Q     E    Q   E Q   Q   E
|
| H         +E  E S S E    W
|---------------4-5p4---|-------------------|
|-5---------(5)-------5-|-------------------|
|-----------------------|--4----------------|
|-----------------------|-------------------|
|-----------------------|-------------------|
|-----------------------|-------------------|


  A/F#                     E/Ab
  Q.           Q.    Q      Q.    Q.       Q
|------------------------|---------------------|
|-2------------2-----2---|--5-----5--------5---|
|-2------------2-----2---|--4-----4--------4---|
|------------------------|---------------------|
|------------------------|---------------------|
|-2--------2--(2)--2---2-|-/4---4-4------4---0-|
| Q        E   Q   Q   E    Q   E Q      Q   E
|
|    |-3-|
| E  S S S Q.      E E E    H        +E  E E E
|------------------------|--4--------(4)-4-5-7-|
|----------5---------5-7-|---------------------|
|----4h5h6---------6-----|---------------------|
|------------------------|---------------------|
|------------------------|---------------------|
|------------------------|---------------------|


  A/F#                    E/Ab
  Q.     Q.       Q        Q.    Q.    Q
|-----------------------|------------------|
|-2------2--------2-----|--5-----5-----5---|
|-2------2--------2-----|--4-----4-----4---|
|-----------------------|------------------|
|-----------------------|------------------|
|-2---2-(2)-----2-----2-|-/4---4-4---4---0-|
| Q   E  Q      Q     E    Q   E Q   Q   E
|
| H         +E  E S S E    W
|-9---------(9)-7-5h7p5-|--4---------------|
|-----------------------|------------------|
|-----------------------|------------------|
|-----------------------|------------------|
|-----------------------|------------------|
|-----------------------|------------------|


 Chorus
  A5               E   D/B
   Q.     Q.     E E   Q.    Q.     Q
|--------------------|---------------------|
|-10-----10-----10-9-|-7-----7------7------|
|--9------9------9-9-|-7-----7------7------|
|--------------------|---------------------|
|--0---0-----0-------|---------------------|
|--------------------|-7---7----7-------7\-|
|  Q   Q     H         Q   Q    Q.      E
|
|  Q   E  Q.     E E   H.           S S E
|--5---4--5------5-4-|---------------------|
|--------------------|-7------------7h9p7--|
|--------------------|---------------------|
|--------------------|---------------------|
|--------------------|---------------------|
|--------------------|---------------------|


  D/F#                 E/Ab
  Q.    Q.     Q        H    E E E E
|--------------------|-----------0-----||
|-3-----3------3-----|--5------5---5--o||
|-2-----2------2-----|--4----4-----4---||
|--------------------|-----------------||
|--------------------|----------------o||
|-2---2----2-------2-|-/4--------------||
| Q   Q    Q.      E    W
|
| H.           S S E    W
|--------------------|-----------------||
|--------------7h9p7-|----------------o||
|-7------------------|--9--------------||
|--------------------|-----------------||
|--------------------|----------------o||
|--------------------|-----------------||


  A/F#                     E/Ab
  Q.           Q.    Q      Q.    Q.       Q
|------------------------|---------------------|
|-2------------2-----2---|--5-----5--------5---|
|-2------------2-----2---|--4-----4--------4---|
|------------------------|---------------------|
|------------------------|---------------------|
|-2--------2--(2)--2---2-|-/4---4-4------4---0-|
| Q        E   Q   Q   E    Q   E Q      Q   E
|
|    |-3-|
| E  S S S Q.      E E E    H        +E  E E E
|------------------------|--4--------(4)-4-5-4-|
|----------5---------5-7-|---------------------|
|----4h5h6---------6-----|---------------------|
|------------------------|---------------------|
|------------------------|---------------------|
|------------------------|---------------------|


  A/F#                    E/Ab
  Q.     Q.       Q        Q.    Q.    Q
|-----------------------|------------------|
|-2------2--------2-----|--5-----5-----5---|
|-2------2--------2-----|--4-----4-----4---|
|-----------------------|------------------|
|-----------------------|------------------|
|-2---2-(2)-----2-----2-|-/4---4-4---4---0-|
| Q   E  Q      Q     E    Q   E Q   Q   E
|
| H         +E  E S S E    W
|---------------4-5p4---|------------------|
|-5---------(5)-------5-|------------------|
|-----------------------|--4---------------|
|-----------------------|------------------|
|-----------------------|------------------|
|-----------------------|------------------|


  A/F#                     E/Ab
  Q.           Q.    Q      Q.    Q.       Q
|------------------------|---------------------|
|-2------------2-----2---|--5-----5--------5---|
|-2------------2-----2---|--4-----4--------4---|
|------------------------|---------------------|
|------------------------|---------------------|
|-2--------2--(2)--2---2-|-/4---4-4------4---0-|
| Q        E   Q   Q   E    Q   E Q      Q   E
|
|    |-3-|
| E  S S S Q.      E E E    H        +E  E E E
|------------------------|--4--------(4)-4-5-7-|
|----------5---------5-7-|---------------------|
|----4h5h6---------6-----|---------------------|
|------------------------|---------------------|
|------------------------|---------------------|
|------------------------|---------------------|


  A/F#                    E/Ab
  Q.     Q.       Q        Q.    Q.    Q
|-----------------------|------------------|
|-2------2--------2-----|--5-----5-----5---|
|-2------2--------2-----|--4-----4-----4---|
|-----------------------|------------------|
|-----------------------|------------------|
|-2---2-(2)-----2-----2-|-/4---4-4---4---0-|
| Q   E  Q      Q     E    Q   E Q   Q   E
|
| H         +E  E S S E    W
|-9---------(9)-7-5h7p5-|--4---------------|
|-----------------------|------------------|
|-----------------------|------------------|
|-----------------------|------------------|
|-----------------------|------------------|
|-----------------------|------------------|


  A5               E   D/B                 D/F#             E/Ab
   Q.     Q.     E E   Q.     Q.    Q      Q.    Q.    Q     W
|--------------------|-------------------|----------------|--------------|
|-10-----10-----10-9-|-7------7-----7----|-3-----3-----3--|--5-----------|
|--9------9------9-9-|-7------7-----7----|-2-----2-----2--|--4-----------|
|--------------------|-------------------|----------------|--------------|
|--0---0-----0-------|-------------------|----------------|--------------|
|--------------------|-7---7------7---7\-|-2---2----2-----|-/4----2--4---|
   Q   Q     H         Q   Q.     Q   E    Q   Q    H        H    Q  Q


 Bridge
  E5/A              D/B               G/B                A/C#
  Q.    Q.    Q     Q.    Q.    Q     Q.    Q  E E  E     H     +E  E  E E
|-----------------|-----------------|------------------|--------------------|
|-5-----5-----5---|-7-----7-----7---|-8-----8----------|-10----(10)---10----|
|-4-----4-----4---|-7-----7-----7---|-7-----7--6-7--9--|--9-----(9)-9----9--|
|-----------------|-----------------|------------------|--------------------|
|-----------------|-----------------|------------------|--------------------|
|-5---5-5---5---5-|-7---7-7---7---7-|-7---7-7------(7)-|--9-----------------|
  Q   E Q   Q   E   Q   E Q   Q   E   Q   E H      +E     W


  E5/A              D/B               G/B                A/C#
  Q.    Q.    Q     Q.    Q.    Q     Q.    Q  E E  E     H     +E  E  E E
|-----------------|-----------------|------------------|--------------------|
|-5-----5-----5---|-7-----7-----7---|-8-----8----------|-10----(10)---10----|
|-4-----4-----4---|-7-----7-----7---|-7-----7--6-7--9--|--9-----(9)-9-------|
|-----------------|-----------------|------------------|-----------------0--|
|-----------------|-----------------|------------------|--------------------|
|-5---5-5---5---5-|-7---7-7---7---7-|-7---7-7------(7)-|--9-----------------|
  Q   E Q   Q   E   Q   E Q   Q   E   Q   E H      +E     W


 Guitar Solo
  A/F#               E/Ab
  Gtr I
  Q.     Q.    Q      Q.     Q.     Q
|------------------|--------------------|
|-2------2-----2---|--5------5------5---|
|-2------2-----2---|--4------4------4---|
|------------------|--------------------|
|------------------|--------------------|
|-2---2-(2)--2---2-|-/4----4-4----4---0-|
| Q   E  Q   Q   E    Q    E Q    Q   E
|
| Gtr III
| Q.     Q.    E E    E  E E E  E E E E
|------------------|--------------------|
|------------------|--------------------|
|------------------|------------------4-|
|------------------|---------4----4-7---|
|------------------|--7--4-7----7-------|
|-5------7-----5-7-|--------------------|


  A/F#                 E/Ab
  Q.     Q.     Q       Q.    Q.       Q
|--------------------|----------------------|
|-2------2------2----|--5-----5--------5----|
|-2------2------2----|--4-----4--------4----|
|--------------------|----------------------|
|--------------------|----------------------|
|-2---2-(2)--2-----2-|-/4---4-4------4---0--|
| Q   E  Q   Q     E    Q   E Q      Q   E
|
| ~~                    ~~~
| H.           +E  E    H        +E  E Q
|--------------------|----------------------|
|------------------5-|-----------------5----|
|-6------------(6)---|--4--------(4)--------|
|--------------------|---------------7------|
|--------------------|----------------------|
|--------------------|----------------------|


  A/F#                   E/Ab
  Q.         Q.    Q      Q.        Q.    Q
|----------------------|----------------------|
|-2----------2-----2---|--5---------5-----5---|
|-2----------2-----2---|--4---------4-----4---|
|----------------------|----------------------|
|----------------------|----------------------|
|-2------2--(2)--2---2-|-/4------4--4---4---0-|
| Q      E   Q   Q   E    Q      E  Q   Q   E
|
|        ~~                      ~~
| E  S S H.               E  S S H.
|----------------------|----------------------|
|----------------------|----------------------|
|----6p4---------------|-----6p4--------------|
|--------7-------------|---------6------------|
|----------------------|----------------------|
|----------------------|----------------------|


  A/F#                   E/Ab
  Q.         Q.    Q      Q.       Q.       Q
|----------------------|-------------------------|
|-2----------2-----2---|--5--------5--------5----|
|-2----------2-----2---|--4--------4--------4----|
|----------------------|-------------------------|
|----------------------|-------------------------|
|-2------2--(2)--2---2-|-/4------4-4------4---0--|
| Q      E   Q   Q   E    Q      E Q      Q   E
|
|        ~~                      ~
| E  S S H.               E  S S Q    +E  E E E
|----------------------|-------------------------|
|----------------------|-------------------------|
|----6p4---------------|-----6p4------------4-6--|
|--------7-------------|---------6----(6)-7------|
|----------------------|-------------------------|
|----------------------|-------------------------|


  A/F#               E/Ab
  Q.     Q.    Q      Q.     Q.     Q
|------------------|--------------------|
|-2------2-----2---|--5------5------5---|
|-2------2-----2---|--4------4------4---|
|------------------|--------------------|
|------------------|--------------------|
|-2---2-(2)--2---2-|-/4----4-4----4---0-|
| Q   E  Q   Q   E    Q    E Q    Q   E
|
| ~~     ~~~
| Q   E  Q   E E E    E  E Q    E E E E
|------------------|-------4------4-5-4-|
|-5------5-----5---|--5--7------7-------|
|-----6------6---6-|--------------------|
|------------------|--------------------|
|------------------|--------------------|
|------------------|--------------------|


  A/F#                  E/Ab
  Q.      Q.     Q       Q.        Q.       Q
|---------------------|---------------------------|
|-2-------2------2----|--5---------5--------5-----|
|-2-------2------2----|--4---------4--------4-----|
|---------------------|---------------------------|
|---------------------|---------------------------|
|-2----2-(2)---2----2-|-/4------4--4-----4-----0--|
| Q    E  Q    Q    E    Q      E  Q     Q     E
|
| E  E E  E  E E E  E    E   E  E  E  E  E  E  E
|-5--7-5--7--9-7-9-12-|--9--12-14-12--9-12-14-12--|
|---------------------|---------------------------|
|---------------------|---------------------------|
|---------------------|---------------------------|
|---------------------|---------------------------|
|---------------------|---------------------------|


  A/F#                   E/Ab
   Q.     Q.      Q       Q.     Q.     Q
|----------------------|---------------------|
|--2------2-------2----|--5------5------5----|
|--2------2-------2----|--4------4------4----|
|----------------------|---------------------|
|----------------------|---------------------|
|--2---2-(2)---2-----2-|-/4---4--4---4-----0-|
|  Q   E  Q    Q     E    Q   E  Q   Q     E
|
|  ~~~~~~~~~~             ~~~~~~~~~~
|  Q.     Q    E  E  E    Q.     Q.     E  E
|-14-----14---14-14-14-|-14-----14-----14-12-|
|----------------------|---------------------|
|----------------------|---------------------|
|----------------------|---------------------|
|----------------------|---------------------|
|----------------------|---------------------|


  A/F#                  E/Ab
   Q.     Q.     Q       Q.     Q.      Q
|---------------------|-------------------------|
|--2------2------2----|--5------5-------5-------|
|--2------2------2----|--4------4-------4-------|
|---------------------|-------------------------|
|---------------------|-------------------------|
|--2---2-(2)--2-----2-|-/4---4--4----4--------0-|
|  Q   E  Q   Q     E    Q   E  Q    Q        E
|
|  ~~~~~~~~~~            ~~~~~~~~~~
|  Q.     Q.     E  E    Q.     Q    E  S  S  E
|---------------------|-------------------------|
|-14-----14--------14-|-12-----12------14-12----|
|---------------14----|-------------14-------14-|
|---------------------|-------------------------|
|---------------------|-------------------------|
|---------------------|-------------------------|


  A/F#                   E/Ab
   Q.     Q.      Q       Q.     Q.    Q
|----------------------|--------------------|
|--2------2-------2----|--5------5-----5----|
|--2------2-------2----|--4------4-----4----|
|----------------------|--------------------|
|----------------------|--------------------|
|--2---2-(2)---2-----2-|-/4---4--4---4----0-|
|  Q   E  Q    Q     E    Q   E  Q   Q    E
|
|  ~~~~~~~~~~
|  Q.     Q    E  E  E    Q.     H        E
|----------------------|--------------------|
|----------------------|--------------------|
|-11-----11---11-11-11-|-11-----11----------|
|----------------------|-----------------14-|
|----------------------|--------------------|
|----------------------|--------------------|


  A/F#                       E/Ab
   Q.            Q.    Q      Q.           Q.    Q
|--------------------------|--------------------------|
|--2-------------2-----2---|--5------------5-----5----|
|--2-------------2-----2---|--4------------4-----4----|
|--------------------------|--------------------------|
|--------------------------|--------------------------|
|--2---------2--(2)--2---2-|-/4---------4--4---4---0--|
|  Q         E   Q   Q   E    Q         E  Q   Q   E
|
|  E   S  S  H.               E   S  S  H.
|--------------------------|--------------------------|
|--------------------------|--------------------------|
|-13--14p13-11-------------|-----14p13----------------|
|--------------------------|-----------11-------------|
|--------------------------|--------------------------|
|--------------------------|--------------------------|


  A/F#                      E/Ab
  Q.            Q.    Q      Q.          Q.      Q
|-------------------------|--------------------------|
|-2-------------2-----2---|--5-----------5-------5---|
|-2-------------2-----2---|--4-----------4-------4---|
|-------------------------|--------------------------|
|-------------------------|--------------------------|
|-2---------2--(2)--2---2-|-/4---------4-4---4-----0-|
| Q         E   Q   Q   E    Q         E Q   Q     E
|
| E   S  S  H.               E   S  S  H         Q
|-------------------------|--------------------------|
|-------------------------|--------------------------|
|----14p13-11-------------|-----14p13----------------|
|-------------------------|-----------11-------/14---|
|-------------------------|--------------------------|
|-------------------------|--------------------------|


  A/F#                  E/Ab
   Q.     Q.      Q      Q.    Q.      Q
|---------------------|---------------------|
|--2------2-------2---|--5-----5-------5----|
|--2------2-------2---|--4-----4-------4----|
|---------------------|---------------------|
|---------------------|---------------------|
|--2---2-(2)--2-----2-|-/4---4-4---4-----0--|
|  Q   E  Q   Q     E    Q   E Q   Q     E
|
|  H.             Q      H.            Q
|---------------------|---------------------|
|---------------------|---------------------|
|---------------------|---------------------|
|-14------------/14---|--------------/14----|
|---------------------|-14------------------|
|---------------------|---------------------|


  A/F#                      E/Ab
  Gtr I
   Q.           Q.    Q      Q.    Q.       Q
|-------------------------|---------------------|
|--2------------2-----2---|--5-----5--------5---|
|--2------------2-----2---|--4-----4--------4---|
|-------------------------|---------------------|
|-------------------------|---------------------|
|--2--------2--(2)--2---2-|-/4---4-4------4---0-|
|  Q        E   Q   Q   E    Q   E Q      Q   E
|
| Gtr II
|     |-3-|
|  E  S S S Q.      E E E    H        +E  E E E
|-------------------------|--4--------(4)-4-5-4-|
|-----------5---------5-7-|---------------------|
|-----4h5h6---------6-----|---------------------|
|-------------------------|---------------------|
|-------------------------|---------------------|
|-------------------------|---------------------|
|
| Gtr III
|  W                         W
|-------------------------|---------------------|
|-------------------------|---------------------|
|-------------------------|---------------------|
|-------------------------|---------------------|
|-------------------------|---------------------|
|-14----------------------|---------------------|


  A/F#                    E/Ab
  Q.     Q.       Q        Q.    Q.    Q
|-----------------------|------------------|
|-2------2--------2-----|--5-----5-----5---|
|-2------2--------2-----|--4-----4-----4---|
|-----------------------|------------------|
|-----------------------|------------------|
|-2---2-(2)-----2-----2-|-/4---4-4---4---0-|
| Q   E  Q      Q     E    Q   E Q   Q   E
|
| H         +E  E S S E    W
|---------------4-5p4---|------------------|
|-5---------(5)-------5-|------------------|
|-----------------------|--4---------------|
|-----------------------|------------------|
|-----------------------|------------------|
|-----------------------|------------------|
|
| W                        W
|-----------------------|------------------|
|-----------------------|------------------|
|-----------------------|------------------|
|-----------------------|------------------|
|-----------------------|------------------|
|-----------------------|------------------|


  A/F#                     E/Ab
  Q.           Q.    Q      Q.    Q.       Q
|------------------------|---------------------|
|-2------------2-----2---|--5-----5--------5---|
|-2------------2-----2---|--4-----4--------4---|
|------------------------|---------------------|
|------------------------|---------------------|
|-2--------2--(2)--2---2-|-/4---4-4------4---0-|
| Q        E   Q   Q   E    Q   E Q      Q   E
|
|    |-3-|
| E  S S S Q.      E E E    H        +E  E E E
|------------------------|--4--------(4)-4-5-7-|
|----------5---------5-7-|---------------------|
|----4h5h6---------6-----|---------------------|
|------------------------|---------------------|
|------------------------|---------------------|
|------------------------|---------------------|


  A/F#                    E/Ab
  Q.     Q.       Q        Q.    Q.    Q
|-----------------------|------------------|
|-2------2--------2-----|--5-----5-----5---|
|-2------2--------2-----|--4-----4-----4---|
|-----------------------|------------------|
|-----------------------|------------------|
|-2---2-(2)-----2-----2-|-/4---4-4---4---0-|
| Q   E  Q      Q     E    Q   E Q   Q   E
|
| H         +E  E S S E    W
|-9---------(9)-7-5h7p5-|--4---------------|
|-----------------------|------------------|
|-----------------------|------------------|
|-----------------------|------------------|
|-----------------------|------------------|
|-----------------------|------------------|


  A5                   D/B
   Q.     Q.     E E   Q.    Q.     Q
|--------------------|---------------------|
|-10-----10-----10-9-|-7-----7------7------|
|--9------9------9-9-|-7-----7------7------|
|--------------------|---------------------|
|--0---0-----0-------|---------------------|
|--------------------|-7---7----7-------7\-|
|  Q   Q     H         Q   Q    Q.      E
|
|  Q   E  Q.     E E   H.           S S E
|--5---4--5------5-4-|---------------------|
|--------------------|-7------------7h9p7--|
|--------------------|---------------------|
|--------------------|---------------------|
|--------------------|---------------------|
|--------------------|---------------------|


  H.=H
  D/F#                 E/Ab            A/F#
  Q.    Q.     Q        H    E E E E    W
|--------------------|-----------0---|-!0------------*|
|-3-----3------3-----|--5------5---5-|-!2------------*|
|-2-----2------2-----|--4----4-----4-|-!2------------*|
|--------------------|---------------|-!2------------*|
|--------------------|---------------|-!0------------*|
|-2---2----2-------2-|-/4------------|-!2------------*|
| Q   Q    Q.      E    W
|
| H.           S S E    W               Q.  E +H
|--------------------|---------------|---------------*|
|--------------7h9p7-|---------------|---------------*|
|-7------------------|--9------------|--4s==6-(6)----*|
|--------------------|---------------|---------------*|
|--------------------|---------------|---------------*|
|--------------------|---------------|---------------*|


Duration Legend
---------------
W - whole; H - half; Q - quarter; E - 8th; S - 16th; T - 32nd; X - 64th; a - acciaccatura
+ - note tied to previous; . - note dotted; .. - note double dotted
Uncapitalized letters represent notes that are staccato (1/2 duration)
Irregular groupings are notated above the duration line
Duration letters will always appear directly above the note/fret number it represents the
duration for.  Duration letters with no fret number below them represent rests.  Multi-
bar rests are notated in the form Wxn, where n is the number of bars to rest for.  Low
melody durations appear below the staff

Tablature Legend
----------------
 h   - hammer-on
 p   - pull-off
 b   - bend
 pb  - pre-bend
 r   - bend release (if no number after the r, then release immediately)
 /\  - slide into or out of (from/to "nowhere")
 s   - legato slide
 S   - shift slide
<n>  - natural harmonic
[n]  - artificial harmonic
n(n) - tapped harmonic
 ~   - vibrato
 tr  - trill
 T   - tap
 TP  - trem. picking
 PM  - palm muting
\n/  - tremolo bar dip; n = amount to dip
 \n  - tremolo bar down
 n/  - tremolo bar up
/n\  - tremolo bar inverted dip
 =   - hold bend; also acts as connecting device for hammers/pulls
 <>  - volume swell (louder/softer)
 x   - on rhythm slash represents muted slash
 o   - on rhythm slash represents single note slash

Misc Legend
-----------
 |  - bar
||  - double bar
||o - repeat start
o|| - repeat end
*|  - double bar (ending)
 :  - bar (freetime)
 $  - Segno
 &  - Coda
Tempo markers - <E/E./Q/Q./H/H.> = BPM(8/16=s8/s16), where s8 = swing 8ths, s16 = swing 16ths


***************************************************************************************
* Generated using Power Tab Editor by Brad Larsen - http://powertab.guitarnetwork.org *
***************************************************************************************
comments
We did not receive enough feedback on this tab! Please rate:
print report bad tab
1 2 3 4 5
I want to post or [tab]
guest
You may want to rate the tab now too:
select rating
Please do not post tabs as comments. Select "correction" instead!