Oops, an error
Loading. Please wait.

Wonderful Week Tab

ver1
ver1

Whole song

Interactive

More versions @911Tabs.com
42 views 1 this week
no commentswrite comment
1 2 3 4 5
please rate
Autoscroll
+/-
esc
set tempo
stop
Hey! There's an official Ultimate Guitar app which is ideal
for learning songs when you're away from computer. Get the app
WARNING: You are trying to view
                                    content from Ultimate-Guitar.com
                                    in an unauthorized application,
                                    which is prohibited.

                                    Please use an official Ultimate
                                    Guitar Tabs application for iPhone,
                                    iPad or Android to access legitimate
                                    chords, guitar, bass, and drum tabs
                                    from Ultimate-Guitar.com database.

                                    Type "ultimate guitar tabs" in Apple
                                    App Store's or Android Market's
                                    search to find the application.
#----------------------------------PLEASE NOTE---------------------------------#
#This file is the author's own work and represents their interpretation of the #
#song. You may only use this file for private study, scholarship, or research. #
#------------------------------------------------------------------------------##

                                 WONDERFUL WEEK
                            As recorded by Quinn Peck

Music by Quinn Peck
Arranged by guitarist5240
Transcribed by guitarist5240

Gtr I (E A D G B E) - 'Untitled'
Gtr II (E A D G B E) - 'Untitled'
Gtr III (E A D G B E) - 'Untitled'
Gtr IV (E A D G B E) - 'Untitled'
Gtr V (E A D G B E) - 'Untitled'

 Intro
  Q=120
  E
 4/4
  Gtrs I, II
  E  E  E E  E  E  E  E    +E   E  E E  E  E  E  E
|---------0-------12----|------------0-------12----|
|------12---12-------12-|-(12)----12---12-------12-|
|---13---------13-------|------13---------13-------|
|-----------------------|--------------------------|
|-----------------------|--------------------------|
|-0---------------------|---0----------------------|
  W                         W


  Eadd9/C#
   +E   E E E E  E E E   +E   E E E E  E E E
|-----------0------9---|----------0------9----|
|-(12)----9---9------9-|-(9)----9---9------9--|
|------11-------11-----|-----11-------11------|
|----------------------|----------------------|
|----------------------|----------------------|
|---9------------------|--9-------------------|
    W                     W


  E5/B
  E E E E E E E E   +E  E E E E E E E
|-------0-----7---|---------0-----7---|
|-----7---7-----7-|-(7)---7---7-----7-|
|---9-------9-----|-----9-------9-----|
|-----------------|-------------------|
|-----------------|-------------------|
|-7---------------|--7----------------|
  W                  W


  Eadd9/G#              Eadd9/F#
  +E   E E E E  E E E   +E   E E E E  E E E
|----------0------0---|----------0------0----|
|-(7)----9---9------9-|-(9)----9---9------9--|
|-----11-------11-----|-----11-------11------|
|---------------------|----------------------|
|-11------------------|--9-------------------|
|---------------------|----------------------|
   W                     W


   Verse
    E
     E  E  E E  E  E  E  E    +E   E  E E  E  E  E  E
||-----------0-------12----|------------0-------12----|
||o-------12---12-------12-|-(12)----12---12-------12-|
||-----13---------13-------|------13---------13-------|
||-------------------------|--------------------------|
||o------------------------|--------------------------|
||---0---------------------|---0----------------------|
|    W                         W
|
|   Gtr III
|    <                                           >
|    W                        +H.                Q
||--12---------------------|-(12)---------------12----|
||o------------------------|--------------------12----|
||--13---------------------|-(13)---------------13----|
||--14---------------------|-(14)---------------14----|
||o------------------------|--------------------------|
||--12---------------------|-(12)---------------12----|


  Eadd9/C#
   +E   E E E E  E E E    +E   E E E E  E E E
|-----------0------9---|-----------0------9---|
|-(12)----9---9------9-|--(9)----9---9------9-|
|------11-------11-----|------11-------11-----|
|----------------------|----------------------|
|----------------------|----------------------|
|---9------------------|---9------------------|
|   W                      W
|
|   <
|   W                     +W
|---9------------------|--(9)-----------------|
|----------------------|----------------------|
|---9------------------|--(9)-----------------|
|--11------------------|-(11)-----------------|
|----------------------|----------------------|
|---9------------------|--(9)-----------------|


  E5/B
  E E E E E E E E   +E  E E E E E E E
|-------0-----7---|---------0-----7---|
|-----7---7-----7-|-(7)---7---7-----7-|
|---9-------9-----|-----9-------9-----|
|-----------------|-------------------|
|-----------------|-------------------|
|-7---------------|--7----------------|
| W                  W
|
| <                               >
| W                 +H.           Q
|-7---------------|-(7)-----------7---|
|-----------------|---------------7---|
|-9---------------|-(9)-----------9---|
|-9---------------|-(9)-----------9---|
|-----------------|-------------------|
|-7---------------|-(7)-----------7---|


  Eadd9/G#              Eadd9/F#
  +E   E E E E  E E E   +E   E E E E  E E E
|----------0------0---|----------0------0-----||
|-(7)----9---9------9-|-(9)----9---9------9--o||
|-----11-------11-----|-----11-------11-------||
|---------------------|-----------------------||
|-11------------------|--9-------------------o||
|---------------------|-----------------------||
|  W                     W
|
|  <                     <
|  W                     W
|---------------------|-----------------------||
|--9------------------|--9-------------------o||
|-11------------------|-11--------------------||
|---------------------|-----------------------||
|-11------------------|--9-------------------o||
|--4------------------|--2--------------------||


   Chorus
    Asus2
     e. e.  E   Q.   S S     E. E.   E    E   S   S   S   S  S S
||-------------^0----0-0-|------0---------0---0--(0)--0--(0)-0-0-|
||o------------^0----0-0-|------0---------0---0---0---0---0--0-0-|
||-------------^2------2-|------2----2----2--(2)--2--(2)--2--2---|
||---x--x--(2)-^2--------|---2-------2---------------------------|
||o--0--0---0--^0--------|---0-------0---------------------------|
||-----------------------|---------------------------------------|
|
|    <
|    W                      +Q.      E   +H
||--12-------------------|-(12)----(12)-(12)---------------------|
||o-12-------------------|-(12)----(12)-(12)---------------------|
||-----------------------|---------------------------------------|
||--14-------------------|-(14)----(14)-(14)---------------------|
||o----------------------|----------12--(12)---------------------|
||--12-------------------|-(12)----(12)-(12)---------------------|


  F#11
   E. E. E Q.   S S     S  E S E S E S E S E.
|----------0----0-0-|--------0-----0-------0--|
|----------0----0-0-|---0----------0-------0--|
|----------3------3-|---3----3-3---3---3-3-3--|
|--------x-4--------|---4--4-4-4-4-4-4-4-4-4--|
|-----4--x----------|---4--4-4-4-4-4-4-4-4-4--|
|--2----------------|---0--2-0-2-0-2-0-2-0-2--|
|
|  <
|  W                    W
|-12----------------|-(12)--------------------|
|-------------------|--12---------------------|
|-15----------------|-(15)--------------------|
|-16----------------|-(16)--------------------|
|-------------------|-------------------------|
|-14----------------|-(14)--------------------|


  1.
  C#m
   E. E. E  Q.   S S     E. E. E E E E E
|----------^0----0-0-|------0----------0--|
|----------^5----5-5-|------5--5-----5-5--|
|----------^6------6-|---6--6--6-6-6-6----|
|--x-------^6--------|---6-----6-6-6------|
|--4--4--x-^4--------|---4-----4-4--------|
|--------------------|--------------------|
|
|  <
|  W                    +W
|-12-----------------|-(12)---------------|
|--------------------|--------------------|
|-18-----------------|-(18)---------------|
|-18-----------------|-(18)---------------|
|-16-----------------|-(16)---------------|
|-12-----------------|-(12)---------------|


  E5/B                    Badd11
   Q  E S S S S S S E E     E  E E S S S S S S S S S S
|-----0---0-------------|--------0---0--------------------||
|-----5---5-x-5-5-5-5-5-|--------4---4-x-4-4-4-4-4-4-4---o||
|-----4---4-x-4-4-4-4-4-|--------4---4-x-4-4-4-4-4-4-4----||
|-------4-4-x---4-4-4-4-|---4------4-4-x---4-4-4---4-4----||
|--2----2-------2---2-2-|---2--2---2-------2---2---2-----o||
|-----------------------|---------------------------------||
|
|  <
|  W                        W
|-12--------------------|-(12)----------------------------||
|-17--------------------|--16----------------------------o||
|-16--------------------|-(16)----------------------------||
|-----------------------|---------------------------------||
|-14--------------------|-(14)---------------------------o||
|-12--------------------|-(12)----------------------------||


  2.
  C#m
   E. E. E  Q.   S S     E. E. E E E E E
|----------^0----0-0-|------0----------0--|
|----------^5----5-5-|------5--5-----5-5--|
|----------^6------6-|---6--6--6-6-6-6----|
|--x-------^6--------|---6-----6-6-6------|
|--4--4--x-^4--------|---4-----4-4--------|
|--------------------|--------------------|
|
|  <
|  W                    +W
|-12-----------------|-(12)---------------|
|--------------------|--------------------|
|-18-----------------|-(18)---------------|
|-18-----------------|-(18)---------------|
|-16-----------------|-(16)---------------|
|-12-----------------|-(12)---------------|
|
| Gtr IV
|  W                     W
|--------------------|--------------------|
|--------------------|--------------------|
|--------------------|--------------------|
|--------------------|--------------------|
|--------------------|--------------------|
|--------------------|--------------------|


  E5/B                     Badd11
   E E S S S S S S E E E     E  E E S S S S E S S S  S
|------0---0-0-----------|--------0---0----------------|
|------5-5-5-5-x-5-5-5-5-|--------4---4-x-4-4-4-4-4--4-|
|------4-4-4-4-x-4-4-4-4-|--------4---4-x-4-4-4-4-4--4-|
|--------4---4-x-4-4-4-4-|---4------4-4-x---4-4---4--4-|
|--2-2-----------2---2-2-|---2--2---2-------2-2---2----|
|------------------------|-----------------------------|
|
|  <
|  W                         W
|-12---------------------|-(12)------------------------|
|-17---------------------|--16-------------------------|
|-16---------------------|-(16)------------------------|
|------------------------|-----------------------------|
|-14---------------------|-(14)------------------------|
|-12---------------------|-(12)------------------------|
|
|  W                         H          Q     E   S  S
|------------------------|-----------------------------|
|------------------------|-----------------------------|
|------------------------|------------------------9h11-|
|------------------------|-----------------------------|
|------------------------|-----------------------------|
|------------------------|-----------------------------|


   Verse
    E
     E   E     E  E   E   E  E  E    +E   E  E E  E  E  E  E
||----------------0---------12----|------------0-------12-------|
||o-----------12-----12--------12-|-(12)----12---12-------12----|
||------13---------------13-------|------13---------13----------|
||--------------------------------|-----------------------------|
||o-------------------------------|-----------------------------|
||---0----------------------------|---0-------------------------|
|    W                                W
|
|    <                                                  >
|    W                               +H.                Q
||--12----------------------------|-(12)---------------12-------|
||o-------------------------------|--------------------12-------|
||--13----------------------------|-(13)---------------13-------|
||--14----------------------------|-(14)---------------14-------|
||o-------------------------------|-----------------------------|
||--12----------------------------|-(12)---------------12-------|
|
|                                     >
|          ~~~~~~~~~~~~~~~~~~~~~~~~~~~~~~
|    E.    E.    +E  +H              +H           Q     E  S  S
||--------------------------------|-----------------------------|
||o-10-----9-----(9)-(9)----------|--(9)------------------------|
||--------------------------------|------------------------9h11-|
||--------------------------------|------------------------9-11-|
||o-------------------------------|-----------------------------|
||--------------------------------|-----------------------------|


  Eadd9/C#
   +E   E    E  E  E      E    E  E    +E   E E   E   E  E E    E
|---------------0--------------9----|-------------0--------9--------|
|-(12)-------9-----9--------------9-|--(9)----9-------9---------9---|
|------11----------------11---------|------11-----------11----------|
|-----------------------------------|-------------------------------|
|-----------------------------------|-------------------------------|
|---9-------------------------------|---9---------------------------|
|   W                                   W
|
|   <
|   W                                  +W
|---9-------------------------------|--(9)--------------------------|
|-----------------------------------|-------------------------------|
|---9-------------------------------|--(9)--------------------------|
|--11-------------------------------|-(11)--------------------------|
|-----------------------------------|-------------------------------|
|---9-------------------------------|--(9)--------------------------|
|
|         ~~                   ~~~~~~~~~~~~
|   E.    E.    E.    S   E    Q       +Q.       +E   E  E S  S E
|-----------------------------------|-------------------------------|
|--10-----9-------------------------|-------------------------------|
|--11-----9-----9-----9s=11----9----|--(9)-------(9)\-----------9---|
|--------------11----11-(11)-(11)---|-(11)------(11)-----9-9h11-----|
|-----------------------------------|-------------------------------|
|-----------------------------------|-------------------------------|


  Eadd9/G#
   E E E E   E  E E E   +E  E E E E E E E
|--------0--------7---|---------0-----7---|
|------7-----7------7-|-(7)---7---7-----7-|
|----9----------9-----|-----9-------9-----|
|---------------------|-------------------|
|---------------------|-------------------|
|--7------------------|--7----------------|
|  W                     W
|
|  <                                  >
|  W                    +H.           Q
|--7------------------|-(7)-----------7---|
|---------------------|---------------7---|
|--9------------------|-(9)-----------9---|
|--9------------------|-(9)-----------9---|
|---------------------|-------------------|
|--7------------------|-(7)-----------7---|
|
|                        >
|  ~~~~~~~~~~~~~         ~~~
|  H        +Q.     E    H.           E E
|---------------------|-------------------|
|---------------------|-------------------|
|-11-------(11)-----9-|--8--------------8-|
|---------------------|-------------------|
|---------------------|-------------------|
|---------------------|-------------------|


  Eadd9/G#                     Eadd9/F#
  +E   E     E E  E   E  E E   +E   E     E E  E   E E E
|--------------0---------0---|--------------0--------0-------||
|-(7)--------9----9--------9-|-(9)--------9----9-------9----o||
|-----11-------------11------|-----11-------------11---------||
|----------------------------|-------------------------------||
|-11-------------------------|--9---------------------------o||
|----------------------------|-------------------------------||
|  W                            W
|
|  <                            <
|  W                            W
|----------------------------|-------------------------------||
|--9-------------------------|--9---------------------------o||
|-11-------------------------|-11----------------------------||
|----------------------------|-------------------------------||
|-11-------------------------|--9---------------------------o||
|--4-------------------------|--2----------------------------||
|
|  E.     E.   E +Q      E E    E.     E.   E +Q     E S  S
|--------------0-(0)---------|--------------0-(0)------------||
|--------12-------------12---|--------12--------------------o||
|--9-----------------------9-|--8----------------------9h11--||
|----------------------------|-------------------------------||
|----------------------------|------------------------------o||
|----------------------------|-------------------------------||


 Chorus
  Asus2
   e. e.  E   Q.   S S     E. E.   E    E   S   S   S   S  S S
|------------^0----0-0-|------0---------0---0--(0)--0--(0)-0-0-|
|------------^0----0-0-|------0---------0---0---0---0---0--0-0-|
|------------^2------2-|------2----2----2--(2)--2--(2)--2--2---|
|--x--x--(2)-^2--------|---2-------2---------------------------|
|--0--0---0--^0--------|---0-------0---------------------------|
|----------------------|---------------------------------------|
|
|  <
|  W                      +Q.      E   +H
|-12-------------------|-(12)----(12)-(12)---------------------|
|-12-------------------|-(12)----(12)-(12)---------------------|
|----------------------|---------------------------------------|
|-14-------------------|-(14)----(14)-(14)---------------------|
|----------------------|----------12--(12)---------------------|
|-12-------------------|-(12)----(12)-(12)---------------------|
|
|  >
|  ~~~~~~~~~~~~~~~~~~~~~~~~~~~
|  W                      +W
|----------------------|---------------------------------------|
|-10-------------------|-(10)----------------------------------|
|--9-------------------|--(9)----------------------------------|
|----------------------|---------------------------------------|
|----------------------|---------------------------------------|
|----------------------|---------------------------------------|


  F#11
   E. E. E Q.   S S     S  E S E S E S E S E.
|----------0----0-0-|--------0-----0-------0---|
|----------0----0-0-|---0----------0-------0---|
|----------3------3-|---3----3-3---3---3-3-3---|
|--------x-4--------|---4--4-4-4-4-4-4-4-4-4---|
|-----4--x----------|---4--4-4-4-4-4-4-4-4-4---|
|--2----------------|---0--2-0-2-0-2-0-2-0-2---|
|
|  <
|  W                    W
|-12----------------|-(12)---------------------|
|-------------------|--12----------------------|
|-15----------------|-(15)---------------------|
|-16----------------|-(16)---------------------|
|-------------------|--------------------------|
|-14----------------|-(14)---------------------|
|
|  W                    W
|-------------------|--------------------------|
|-------------------|--------------------------|
|-------------------|--------------------------|
|-------------------|--------------------------|
|-------------------|--------------------------|
|-------------------|--------------------------|


  C#m
   E. E. E  Q.   S S     E. E. E E E E E
|----------^0----0-0-|------0----------0--|
|----------^5----5-5-|------5--5-----5-5--|
|----------^6------6-|---6--6--6-6-6-6----|
|--x-------^6--------|---6-----6-6-6------|
|--4--4--x-^4--------|---4-----4-4--------|
|--------------------|--------------------|
|
|  <
|  W                    +W
|-12-----------------|-(12)---------------|
|--------------------|--------------------|
|-18-----------------|-(18)---------------|
|-18-----------------|-(18)---------------|
|-16-----------------|-(16)---------------|
|-12-----------------|-(12)---------------|


  E5/B                    Badd11
   Q  E S S S S S S E E     E  E E S S S S S S S S S S
|-----0---0-------------|--------0---0-------------------|
|-----5---5-x-5-5-5-5-5-|--------4---4-x-4-4-4-4-4-4-4---|
|-----4---4-x-4-4-4-4-4-|--------4---4-x-4-4-4-4-4-4-4---|
|-------4-4-x---4-4-4-4-|---4------4-4-x---4-4-4---4-4---|
|--2----2-------2---2-2-|---2--2---2-------2---2---2-----|
|-----------------------|--------------------------------|
|
|  <
|  W                        W
|-12--------------------|-(12)---------------------------|
|-17--------------------|--16----------------------------|
|-16--------------------|-(16)---------------------------|
|-----------------------|--------------------------------|
|-14--------------------|-(14)---------------------------|
|-12--------------------|-(12)---------------------------|


  Asus2                                     F#11
   e. e.  E   H        +W                    E. E. E H        +W
|------------^0-----|--(0)----------------|----------0-----|--(0)----|
|------------^0-----|--(0)----------------|----------0-----|--(0)----|
|------------^2-----|--(2)----------------|----------3-----|--(3)----|
|--x--x--(2)-^2-----|--(2)----------------|--------x-4-----|--(4)----|
|--0--0---0--^0-----|--(0)----------------|-----4--x-------|---------|
|-------------------|---------------------|--2-------------|---------|
|
|  <                                         <
|  W                   +Q.     E   +H        W                +W
|-12----------------|-(12)---(12)-(12)----|-12-------------|-(12)----|
|-12----------------|-(12)---(12)-(12)----|----------------|---------|
|-------------------|---------------------|-15-------------|-(15)----|
|-14----------------|-(14)---(14)-(14)----|-16-------------|-(16)----|
|-------------------|---------12--(12)----|----------------|---------|
|-12----------------|-(12)---(12)-(12)----|-14-------------|-(14)----|


  C#m                             E5/B
   E. E. E  H        +W            Q  E S S S S S S E E
|----------^0-----|--(0)--------|-----0---0-------------|
|----------^5-----|--(5)--------|-----5---5-x-5-5-5-5-5-|
|----------^6-----|--(6)--------|-----4---4-x-4-4-4-4-4-|
|--x-------^6-----|--(6)--------|-------4-4-x---4-4-4-4-|
|--4--4--x-^4-----|--(4)--------|--2----2-------2---2-2-|
|-----------------|-------------|-----------------------|
|
|  <                               <
|  W                 +W            W
|-12--------------|-(12)--------|-12--------------------|
|-----------------|-------------|-17--------------------|
|-18--------------|-(18)--------|-16--------------------|
|-18--------------|-(18)--------|-----------------------|
|-16--------------|-(16)--------|-14--------------------|
|-12--------------|-(12)--------|-12--------------------|
|
| Gtr IV
|  W                  W            W
|-----------------|-------------|-----------------------|
|-----------------|-------------|-----------------------|
|-----------------|-------------|-----------------------|
|-----------------|-------------|-----------------------|
|-----------------|-------------|-----------------------|
|-----------------|-------------|-----------------------|


  Badd11
    E  E E S S S S  S S  S S  S S
|--------0---0----------------------|
|--------4---4-x-4--4-4--4-4--4-4---|
|--------4---4-x-4--4-4--4-4--4-4---|
|---4------4-4-x----4-4--4----4-4---|
|---2--2---2--------2----2----2-----|
|-----------------------------------|
|
|   W
|-(12)------------------------------|
|--16-------------------------------|
|-(16)------------------------------|
|-----------------------------------|
|-(14)------------------------------|
|-(12)------------------------------|
|
|   H          E    E    S S  E
|-----------------------------------|
|-----------------------------------|
|-----------------------------------|
|--------------------------9-11-----|
|------------------11---11----------|
|-----------------------------------|


 Guitar Solo/Outro
  E
   E  E  E  E  E  E  E  E       +E   E  E  E   E   E  E  E
|-----------0-------12-------|-------------0---------12-------|
|-------12----12-------12----|-(12)----12-----12--------12----|
|----13----------13----------|------13------------13----------|
|----------------------------|--------------------------------|
|----------------------------|--------------------------------|
|--0-------------------------|---0----------------------------|
|  W                             W
|
|  <                                                  >
|  W                            +H.                   Q
|-12-------------------------|-(12)------------------12-------|
|----------------------------|-----------------------12-------|
|-13-------------------------|-(13)------------------13-------|
|-14-------------------------|-(14)------------------14-------|
|----------------------------|--------------------------------|
|-12-------------------------|-(12)------------------12-------|
|
|  E  E  E  E  E  E  E  S  S     E   E  E  E  +Q.        S  S
|----------------------------|--------------------------------|
|----------12----------------|------------12-(12)----------12-|
|--9-----9-------11-----9-11-|---9------9---------------11----|
|-----9----------------------|-------9------------------------|
|----------------------------|--------------------------------|
|----------------------------|--------------------------------|


  Eadd9/C#
   +E   E    E    E  E  E    E     E    +E   E E E   E   E E  E
|-----------------0----------9-------|-----------0---------9-----|
|-(12)-------9-------9-------------9-|--(9)----9-----9--------9--|
|------11--------------11------------|------11----------11-------|
|------------------------------------|---------------------------|
|------------------------------------|---------------------------|
|---9--------------------------------|---9-----------------------|
|   W                                    W
|
|   <
|   W                                   +W
|---9--------------------------------|--(9)----------------------|
|------------------------------------|---------------------------|
|---9--------------------------------|--(9)----------------------|
|--11--------------------------------|-(11)----------------------|
|------------------------------------|---------------------------|
|---9--------------------------------|--(9)----------------------|
|
|                                        ~~~~~~~~~~~~~~~
|   |-----3-----|    |-----3-----|
|   Q      Q    Q    Q     Q     Q       H          +Q.       E
|--12-----11-------------------/11---|---------------------------|
|--------------12---------12---------|--14---------(14)----------|
|-------------------13---------------|-----------------------13--|
|------------------------------------|---------------------------|
|------------------------------------|---------------------------|
|------------------------------------|---------------------------|


  E5/B
   E       E           E  E   E  E  E  E   +E       E           E  E   E  E E E
|-------------------------0---------7----|-------------------------0--------7---|
|----------------------7------7--------7-|-(7)------------------7------7------7-|
|----------9---------------------9-------|----------9---------------------9-----|
|----------------------------------------|--------------------------------------|
|----------------------------------------|--------------------------------------|
|--7-------------------------------------|--7-----------------------------------|
|  W                                        W
|
|  <                                                                        >
|  W                                       +H.                              Q
|--7-------------------------------------|-(7)------------------------------7---|
|----------------------------------------|----------------------------------7---|
|--9-------------------------------------|-(9)------------------------------9---|
|--9-------------------------------------|-(9)------------------------------9---|
|----------------------------------------|--------------------------------------|
|--7-------------------------------------|-(7)------------------------------7---|
|
|                                                                      ~~~~
|          |---3----|                               |---3----|
|  E      +S   +S   S  E  E  +Q     E  E    E      +S   +S   S  E  E  +H
|----------------------------------------|--------------------------------------|
|-14b17==(14)r(14)p12----12-(12)---------|-14b17==(14)r(14)p12----12-(12)-------|
|---------------------13-----------13-11-|---------------------13---------------|
|----------------------------------------|--------------------------------------|
|----------------------------------------|--------------------------------------|
|----------------------------------------|--------------------------------------|


  Eadd9/G#                             Eadd9/F#
  +E     E      E  E  E   E     E  E   +E   E     E E  E   E   E   E
|------------------0------------0----|--------------0----------0------|
|-(7)-----------9-----9------------9-|-(9)--------9----9-----------9--|
|-------11---------------11----------|-----11-------------11----------|
|------------------------------------|--------------------------------|
|-11---------------------------------|--9-----------------------------|
|------------------------------------|--------------------------------|
|  W                                    W
|
|  <                                    <
|  W                                    W
|------------------------------------|--------------------------------|
|--9---------------------------------|--9-----------------------------|
|-11---------------------------------|-11-----------------------------|
|------------------------------------|--------------------------------|
|-11---------------------------------|--9-----------------------------|
|--4---------------------------------|--2-----------------------------|
|
|  E.       +E.    E  E.     E.    E    E.     E.   E  E   E   E   E
|-14b16----(14)---12-14-----12----11-|-12-----11----9-----------------|
|------------------------------------|----------------12--10---9------|
|------------------------------------|----------------------------11--|
|------------------------------------|----------------(9)-(7)-(6)-----|
|------------------------------------|----------------------------(9)-|
|------------------------------------|--------------------------------|


  E
   E  E  E  E  E  E  E  E       +E   E  E  E   E   E  E  E
|-----------0-------12-------|-------------0---------12-------|
|-------12----12-------12----|-(12)----12-----12--------12----|
|----13----------13----------|------13------------13----------|
|----------------------------|--------------------------------|
|----------------------------|--------------------------------|
|--0-------------------------|---0----------------------------|
|  W                             W
|
|  <                                                  >
|  W                            +H.                   Q
|-12-------------------------|-(12)------------------12-------|
|----------------------------|-----------------------12-------|
|-13-------------------------|-(13)------------------13-------|
|-14-------------------------|-(14)------------------14-------|
|----------------------------|--------------------------------|
|-12-------------------------|-(12)------------------12-------|
|
|  E  E  E  E  E  E  E  S  S     E   E  E  E  +Q.        S  S
|----------------------------|--------------------------------|
|----------12----------------|------------12-(12)----------12-|
|--9-----9-------11-----9-11-|---9------9---------------11----|
|-----9-----9----------------|-------9-----9--(9)-----------9-|
|--7-----7--------9-----7--9-|---7------7----------------7----|
|-----7----------------------|-------7------------------------|


  Eadd9/C#
   +E   E    E    E  E  E    E     E    +E   E E E   E   E E  E
|-----------------0----------9-------|-----------0---------9-----|
|-(12)-------9-------9-------------9-|--(9)----9-----9--------9--|
|------11--------------11------------|------11----------11-------|
|------------------------------------|---------------------------|
|------------------------------------|---------------------------|
|---9--------------------------------|---9-----------------------|
|   W                                    W
|
|   <
|   W                                   +W
|---9--------------------------------|--(9)----------------------|
|------------------------------------|---------------------------|
|---9--------------------------------|--(9)----------------------|
|--11--------------------------------|-(11)----------------------|
|------------------------------------|---------------------------|
|---9--------------------------------|--(9)----------------------|
|
|                                        ~~~~~~~~~~~~~~~
|   |-----3-----|    |-----3-----|
|   Q      Q    Q    Q     Q     Q       H          +Q.       E
|--12-----11-------------------/11---|---------------------------|
|--------------12---------12---------|--14---------(14)----------|
|---9------8--------13----------/8---|-----------------------13--|
|---------------9----------9---------|--11---------(11)----------|
|-------------------11---------------|-----------------------11--|
|------------------------------------|---------------------------|


  E5/B
   E     E E E   E  E E E   +E  E E E E E E E
|------------0--------7---|---------0-----7---|
|----------7-----7------7-|-(7)---7---7-----7-|
|--------9----------9-----|-----9-------9-----|
|-------------------------|-------------------|
|-------------------------|-------------------|
|--7----------------------|--7----------------|
|  W                         W
|
|  <                                      >
|  W                        +H.           Q
|--7----------------------|-(7)-----------7---|
|-------------------------|---------------7---|
|--9----------------------|-(9)-----------9---|
|--9----------------------|-(9)-----------9---|
|-------------------------|-------------------|
|--7----------------------|-(7)-----------7---|
|
|                ~~~~~~~~~~~~~~~
|  H            +H           W
|-------------------------|-------------------|
|-14b16========(14)r======|=12----------------|
|-------------------------|-------------------|
|-11b13========(11)r======|==9----------------|
|-------------------------|-------------------|
|-------------------------|-------------------|


  H.=H
  Eadd9/G#               Eadd9/F#              E
   +E   E E E E  E E E   +E   E E E E  E E E    W
|-----------0------0---|----------0------0---|-^0----*|
|--(7)----9---9------9-|-(9)----9---9------9-|-^0----*|
|------11-------11-----|-----11-------11-----|-^9----*|
|----------------------|---------------------|-^6----*|
|--11------------------|--9------------------|-^7----*|
|----------------------|---------------------|-^0----*|
|   W                     W
|
|   <                     <                     >
|   W                     W                     W
|----------------------|---------------------|-------*|
|---9------------------|--9------------------|-------*|
|--11------------------|-11------------------|-------*|
|----------------------|---------------------|-------*|
|--11------------------|--9------------------|-------*|
|---4------------------|--2------------------|-12----*|
|
|                                               >
|   W                     H.             Q      W
|----------------------|---------------------|-------*|
|----------------------|---------------------|-------*|
|-/13------------------|-11--------------8---|--9----*|
|----------------------|---------------------|-------*|
|-/11------------------|--9--------------6---|--7----*|
|----------------------|---------------------|-------*|


Duration Legend
---------------
W - whole; H - half; Q - quarter; E - 8th; S - 16th; T - 32nd; X - 64th; a - acciaccatura
+ - note tied to previous; . - note dotted; .. - note double dotted
Uncapitalized letters represent notes that are staccato (1/2 duration)
Irregular groupings are notated above the duration line
Duration letters will always appear directly above the note/fret number it represents the
duration for.  Duration letters with no fret number below them represent rests.  Multi-
bar rests are notated in the form Wxn, where n is the number of bars to rest for.  Low
melody durations appear below the staff

Tablature Legend
----------------
 h   - hammer-on
 p   - pull-off
 b   - bend
 pb  - pre-bend
 r   - bend release (if no number after the r, then release immediately)
 /\  - slide into or out of (from/to "nowhere")
 s   - legato slide
 S   - shift slide
<n>  - natural harmonic
[n]  - artificial harmonic
n(n) - tapped harmonic
 ~   - vibrato
 tr  - trill
 T   - tap
 TP  - trem. picking
 PM  - palm muting
\n/  - tremolo bar dip; n = amount to dip
 \n  - tremolo bar down
 n/  - tremolo bar up
/n\  - tremolo bar inverted dip
 =   - hold bend; also acts as connecting device for hammers/pulls
 <>  - volume swell (louder/softer)
 x   - on rhythm slash represents muted slash
 o   - on rhythm slash represents single note slash

Misc Legend
-----------
 |  - bar
||  - double bar
||o - repeat start
o|| - repeat end
*|  - double bar (ending)
 :  - bar (freetime)
 $  - Segno
 &  - Coda
Tempo markers - <E/E./Q/Q./H/H.> = BPM(8/16=s8/s16), where s8 = swing 8ths, s16 = swing 16ths


***************************************************************************************
* Generated using Power Tab Editor by Brad Larsen - http://powertab.guitarnetwork.org *
***************************************************************************************
comments
We did not receive enough feedback on this tab! Please rate:
print report bad tab
1 2 3 4 5
I want to post or [tab]
guest
You may want to rate the tab now too:
select rating
Please do not post tabs as comments. Select "correction" instead!